  0
SECTION
  2
HEADER
  9
$ACADVER
  1
AC1015
  9
$ACADMAINTVER
 70
    20
  9
$DWGCODEPAGE
  3
ANSI_932
  9
$INSBASE
 10
0.0
 20
0.0
 30
0.0
  9
$EXTMIN
 10
-1800.109854809471
 20
-2702.438272787302
 30
-0.0015258207003583
  9
$EXTMAX
 10
1800.109871663278
 20
2650.163015010163
 30
0.0000000349246037
  9
$LIMMIN
 10
0.0
 20
0.0
  9
$LIMMAX
 10
0.0
 20
0.0
  9
$ORTHOMODE
 70
     0
  9
$REGENMODE
 70
     1
  9
$FILLMODE
 70
     1
  9
$QTEXTMODE
 70
     0
  9
$MIRRTEXT
 70
     1
  9
$LTSCALE
 40
101.6
  9
$ATTMODE
 70
     1
  9
$TEXTSIZE
 40
0.0
  9
$TRACEWID
 40
1.0
  9
$TEXTSTYLE
  7
STANDARD
  9
$CLAYER
  8
DATA
  9
$CELTYPE
  6
ByLayer
  9
$CECOLOR
 62
   256
  9
$CELTSCALE
 40
1.0
  9
$DISPSILH
 70
     0
  9
$DIMSCALE
 40
1.0
  9
$DIMASZ
 40
0.18
  9
$DIMEXO
 40
0.0625
  9
$DIMDLI
 40
0.38
  9
$DIMRND
 40
0.0
  9
$DIMDLE
 40
0.0
  9
$DIMEXE
 40
0.18
  9
$DIMTP
 40
0.0
  9
$DIMTM
 40
0.0
  9
$DIMTXT
 40
0.18
  9
$DIMCEN
 40
0.09
  9
$DIMTSZ
 40
0.0
  9
$DIMTOL
 70
     0
  9
$DIMLIM
 70
     0
  9
$DIMTIH
 70
     1
  9
$DIMTOH
 70
     1
  9
$DIMSE1
 70
     0
  9
$DIMSE2
 70
     0
  9
$DIMTAD
 70
     0
  9
$DIMZIN
 70
     0
  9
$DIMBLK
  1

  9
$DIMASO
 70
     1
  9
$DIMSHO
 70
     1
  9
$DIMPOST
  1

  9
$DIMAPOST
  1

  9
$DIMALT
 70
     0
  9
$DIMALTD
 70
     2
  9
$DIMALTF
 40
25.4
  9
$DIMLFAC
 40
1.0
  9
$DIMTOFL
 70
     0
  9
$DIMTVP
 40
0.0
  9
$DIMTIX
 70
     0
  9
$DIMSOXD
 70
     0
  9
$DIMSAH
 70
     0
  9
$DIMBLK1
  1

  9
$DIMBLK2
  1

  9
$DIMSTYLE
  2
STANDARD
  9
$DIMCLRD
 70
     0
  9
$DIMCLRE
 70
     0
  9
$DIMCLRT
 70
     0
  9
$DIMTFAC
 40
1.0
  9
$DIMGAP
 40
0.09
  9
$DIMJUST
 70
     0
  9
$DIMSD1
 70
     0
  9
$DIMSD2
 70
     0
  9
$DIMTOLJ
 70
     1
  9
$DIMTZIN
 70
     0
  9
$DIMALTZ
 70
     0
  9
$DIMALTTZ
 70
     0
  9
$DIMUPT
 70
     0
  9
$DIMDEC
 70
     4
  9
$DIMTDEC
 70
     4
  9
$DIMALTU
 70
     2
  9
$DIMALTTD
 70
     2
  9
$DIMTXSTY
  7
STANDARD
  9
$DIMAUNIT
 70
     0
  9
$DIMADEC
 70
     0
  9
$DIMALTRND
 40
0.0
  9
$DIMAZIN
 70
     0
  9
$DIMDSEP
 70
    46
  9
$DIMATFIT
 70
     3
  9
$DIMFRAC
 70
     0
  9
$DIMLDRBLK
  1

  9
$DIMLUNIT
 70
     2
  9
$DIMLWD
 70
    -2
  9
$DIMLWE
 70
    -2
  9
$DIMTMOVE
 70
     0
  9
$LUNITS
 70
     2
  9
$LUPREC
 70
     4
  9
$SKETCHINC
 40
0.1
  9
$FILLETRAD
 40
0.0
  9
$AUNITS
 70
     0
  9
$AUPREC
 70
     0
  9
$MENU
  1
acad
  9
$ELEVATION
 40
0.0
  9
$PELEVATION
 40
0.0
  9
$THICKNESS
 40
0.0
  9
$LIMCHECK
 70
     0
  9
$CHAMFERA
 40
0.0
  9
$CHAMFERB
 40
0.0
  9
$CHAMFERC
 40
0.0
  9
$CHAMFERD
 40
0.0
  9
$SKPOLY
 70
     0
  9
$TDCREATE
 40
2457899.656759259
  9
$TDUCREATE
 40
2457899.281759260
  9
$TDUPDATE
 40
2457899.657268519
  9
$TDUUPDATE
 40
2457899.282268519
  9
$TDINDWG
 40
0.0004398148
  9
$TDUSRTIMER
 40
0.0004398148
  9
$USRTIMER
 70
     1
  9
$ANGBASE
 50
0.0
  9
$ANGDIR
 70
     0
  9
$PDMODE
 70
     1
  9
$PDSIZE
 40
-2.0
  9
$PLINEWID
 40
0.0
  9
$SPLFRAME
 70
     0
  9
$SPLINETYPE
 70
     6
  9
$SPLINESEGS
 70
     8
  9
$HANDSEED
  5
42E
  9
$SURFTAB1
 70
     6
  9
$SURFTAB2
 70
     6
  9
$SURFTYPE
 70
     6
  9
$SURFU
 70
     6
  9
$SURFV
 70
     6
  9
$UCSBASE
  2

  9
$UCSNAME
  2

  9
$UCSORG
 10
0.0
 20
0.0
 30
0.0
  9
$UCSXDIR
 10
1.0
 20
0.0
 30
0.0
  9
$UCSYDIR
 10
0.0
 20
1.0
 30
0.0
  9
$UCSORTHOREF
  2

  9
$UCSORTHOVIEW
 70
     0
  9
$UCSORGTOP
 10
0.0
 20
0.0
 30
0.0
  9
$UCSORGBOTTOM
 10
0.0
 20
0.0
 30
0.0
  9
$UCSORGLEFT
 10
0.0
 20
0.0
 30
0.0
  9
$UCSORGRIGHT
 10
0.0
 20
0.0
 30
0.0
  9
$UCSORGFRONT
 10
0.0
 20
0.0
 30
0.0
  9
$UCSORGBACK
 10
0.0
 20
0.0
 30
0.0
  9
$PUCSBASE
  2

  9
$PUCSNAME
  2

  9
$PUCSORG
 10
0.0
 20
0.0
 30
0.0
  9
$PUCSXDIR
 10
1.0
 20
0.0
 30
0.0
  9
$PUCSYDIR
 10
0.0
 20
1.0
 30
0.0
  9
$PUCSORTHOREF
  2

  9
$PUCSORTHOVIEW
 70
     0
  9
$PUCSORGTOP
 10
0.0
 20
0.0
 30
0.0
  9
$PUCSORGBOTTOM
 10
0.0
 20
0.0
 30
0.0
  9
$PUCSORGLEFT
 10
0.0
 20
0.0
 30
0.0
  9
$PUCSORGRIGHT
 10
0.0
 20
0.0
 30
0.0
  9
$PUCSORGFRONT
 10
0.0
 20
0.0
 30
0.0
  9
$PUCSORGBACK
 10
0.0
 20
0.0
 30
0.0
  9
$USERI1
 70
     0
  9
$USERI2
 70
     0
  9
$USERI3
 70
     0
  9
$USERI4
 70
     0
  9
$USERI5
 70
     0
  9
$USERR1
 40
0.0
  9
$USERR2
 40
0.0
  9
$USERR3
 40
0.0
  9
$USERR4
 40
0.0
  9
$USERR5
 40
0.0
  9
$WORLDVIEW
 70
     1
  9
$SHADEDGE
 70
     3
  9
$SHADEDIF
 70
    70
  9
$TILEMODE
 70
     1
  9
$MAXACTVP
 70
    64
  9
$PINSBASE
 10
0.0
 20
0.0
 30
0.0
  9
$PLIMCHECK
 70
     0
  9
$PEXTMIN
 10
1.000000000000000E+20
 20
1.000000000000000E+20
 30
1.000000000000000E+20
  9
$PEXTMAX
 10
-1.000000000000000E+20
 20
-1.000000000000000E+20
 30
-1.000000000000000E+20
  9
$PLIMMIN
 10
0.0
 20
0.0
  9
$PLIMMAX
 10
12.0
 20
9.0
  9
$UNITMODE
 70
     0
  9
$VISRETAIN
 70
     0
  9
$PLINEGEN
 70
     1
  9
$PSLTSCALE
 70
     0
  9
$TREEDEPTH
 70
  3020
  9
$CMLSTYLE
  2
Standard
  9
$CMLJUST
 70
     0
  9
$CMLSCALE
 40
1.0
  9
$PROXYGRAPHICS
 70
     1
  9
$MEASUREMENT
 70
     0
  9
$CELWEIGHT
370
    -1
  9
$ENDCAPS
280
     0
  9
$JOINSTYLE
280
     0
  9
$LWDISPLAY
290
     0
  9
$INSUNITS
 70
     0
  9
$HYPERLINKBASE
  1

  9
$STYLESHEET
  1

  9
$XEDIT
290
     1
  9
$CEPSNTYPE
380
     0
  9
$PSTYLEMODE
290
     1
  9
$FINGERPRINTGUID
  2
{D4BADEA5-4572-944F-A127-AFA3E82F8D20}
  9
$VERSIONGUID
  2
{4A6395CE-FFE5-814A-8152-EC4A8ACD72B2}
  9
$EXTNAMES
290
     1
  9
$PSVPSCALE
 40
0.0
  9
$OLESTARTUP
290
     0
  0
ENDSEC
  0
SECTION
  2
CLASSES
  0
CLASS
  1
ACDBDICTIONARYWDFLT
  2
AcDbDictionaryWithDefault
  3
ObjectDBX Classes
 90
        0
280
     0
281
     0
  0
CLASS
  1
MATERIAL
  2
AcDbMaterial
  3
ObjectDBX Classes
 90
     1153
280
     0
281
     0
  0
CLASS
  1
VISUALSTYLE
  2
AcDbVisualStyle
  3
ObjectDBX Classes
 90
     4095
280
     0
281
     0
  0
CLASS
  1
SCALE
  2
AcDbScale
  3
ObjectDBX Classes
 90
     1153
280
     0
281
     0
  0
CLASS
  1
TABLESTYLE
  2
AcDbTableStyle
  3
ObjectDBX Classes
 90
     4095
280
     0
281
     0
  0
CLASS
  1
MLEADERSTYLE
  2
AcDbMLeaderStyle
  3
ACDB_MLEADERSTYLE_CLASS
 90
     4095
280
     0
281
     0
  0
CLASS
  1
ACDBSECTIONVIEWSTYLE
  2
AcDbSectionViewStyle
  3
ObjectDBX Classes
 90
     1025
280
     0
281
     0
  0
CLASS
  1
ACDBDETAILVIEWSTYLE
  2
AcDbDetailViewStyle
  3
ObjectDBX Classes
 90
     1025
280
     0
281
     0
  0
CLASS
  1
DICTIONARYVAR
  2
AcDbDictionaryVar
  3
ObjectDBX Classes
 90
        0
280
     0
281
     0
  0
CLASS
  1
CELLSTYLEMAP
  2
AcDbCellStyleMap
  3
ObjectDBX Classes
 90
     1152
280
     0
281
     0
  0
CLASS
  1
ACDBPLACEHOLDER
  2
AcDbPlaceHolder
  3
ObjectDBX Classes
 90
        0
280
     0
281
     0
  0
CLASS
  1
LAYOUT
  2
AcDbLayout
  3
ObjectDBX Classes
 90
        0
280
     0
281
     0
  0
ENDSEC
  0
SECTION
  2
TABLES
  0
TABLE
  2
VPORT
  5
356
330
0
100
AcDbSymbolTable
 70
     1
  0
VPORT
  5
3C2
330
356
100
AcDbSymbolTableRecord
100
AcDbViewportTableRecord
  2
*ACTIVE
 70
     0
 10
0.0
 20
0.0
 11
1.0
 21
1.0
 12
0.0000084269049694
 22
-26.13762888856945
 13
0.0
 23
0.0
 14
1.0
 24
1.0
 15
0.0
 25
0.0
 16
0.0
 26
0.0
 36
1.0
 17
0.0
 27
0.0
 37
0.0
 40
5381.770777104263
 41
2.309090909090909
 42
50.0
 43
0.0
 44
0.0
 50
0.0
 51
0.0
 71
     0
 72
  2000
 73
     1
 74
     1
 75
     0
 76
     0
 77
     0
 78
     0
281
     0
 65
     1
110
0.0
120
0.0
130
0.0
111
1.0
121
0.0
131
0.0
112
0.0
122
1.0
132
0.0
 79
     0
146
0.0
1001
ACAD_NAV_VCDISPLAY
1070
     3
  0
ENDTAB
  0
TABLE
  2
LTYPE
  5
353
330
0
100
AcDbSymbolTable
 70
    13
  0
LTYPE
  5
3A8
330
353
100
AcDbSymbolTableRecord
100
AcDbLinetypeTableRecord
  2
ByBlock
 70
     0
  3

 72
    65
 73
     0
 40
0.0
  0
LTYPE
  5
3A9
330
353
100
AcDbSymbolTableRecord
100
AcDbLinetypeTableRecord
  2
ByLayer
 70
     0
  3

 72
    65
 73
     0
 40
0.0
  0
LTYPE
  5
3AA
330
353
100
AcDbSymbolTableRecord
100
AcDbLinetypeTableRecord
  2
CONTINUOUS
 70
     0
  3
Solid line
 72
    65
 73
     0
 40
0.0
  0
LTYPE
  5
3C8
330
353
100
AcDbSymbolTableRecord
100
AcDbLinetypeTableRecord
  2
STYLE_06
 70
     0
  3

 72
    65
 73
     4
 40
1.041641235351562
 49
0.625
 74
     0
 49
-0.208282470703125
 74
     0
 49
0.069427490234375
 74
     0
 49
-0.1389312744140625
 74
     0
  0
ENDTAB
  0
TABLE
  2
LAYER
  5
350
330
0
100
AcDbSymbolTable
 70
     5
  0
LAYER
  5
3A2
102
{ACAD_XDICTIONARY
360
3D8
102
}
330
350
100
AcDbSymbolTableRecord
100
AcDbLayerTableRecord
  2
0
 70
     0
 62
     7
  6
CONTINUOUS
370
    -3
390
35D
  0
LAYER
  5
3C1
102
{ACAD_XDICTIONARY
360
3DA
102
}
330
350
100
AcDbSymbolTableRecord
100
AcDbLayerTableRecord
  2
DATA
 70
     0
 62
     7
  6
CONTINUOUS
370
    -3
390
35D
  0
LAYER
  5
3CF
102
{ACAD_XDICTIONARY
360
3DC
102
}
330
350
100
AcDbSymbolTableRecord
100
AcDbLayerTableRecord
  2
HIBINO-BASE
 70
     0
 62
     7
  6
CONTINUOUS
370
    -3
390
35D
  0
LAYER
  5
3D0
102
{ACAD_XDICTIONARY
360
3DE
102
}
330
350
100
AcDbSymbolTableRecord
100
AcDbLayerTableRecord
  2
SPEC
 70
     0
 62
     7
  6
CONTINUOUS
370
    -3
390
35D
  0
LAYER
  5
3D1
102
{ACAD_XDICTIONARY
360
3E0
102
}
330
350
100
AcDbSymbolTableRecord
100
AcDbLayerTableRecord
  2
DIMNSIONS
 70
     0
 62
     7
  6
CONTINUOUS
370
    -3
390
35D
  0
ENDTAB
  0
TABLE
  2
STYLE
  5
351
330
0
100
AcDbSymbolTable
 70
     3
  0
STYLE
  5
3A3
330
351
100
AcDbSymbolTableRecord
100
AcDbTextStyleTableRecord
  2
STANDARD
 70
     0
 40
0.0
 41
1.0
 50
0.0
 71
     0
 42
0.0
  3
txt
  4
BIGFONT.SHX
  0
ENDTAB
  0
TABLE
  2
VIEW
  5
354
330
0
100
AcDbSymbolTable
 70
     0
  0
ENDTAB
  0
TABLE
  2
UCS
  5
355
330
0
100
AcDbSymbolTable
 70
     0
  0
ENDTAB
  0
TABLE
  2
APPID
  5
357
330
0
100
AcDbSymbolTable
 70
     4
  0
APPID
  5
3A4
330
357
100
AcDbSymbolTableRecord
100
AcDbRegAppTableRecord
  2
ACAD
 70
     0
  0
APPID
  5
3AB
330
357
100
AcDbSymbolTableRecord
100
AcDbRegAppTableRecord
  2
AcadAnnotative
 70
     0
  0
APPID
  5
3EC
330
357
100
AcDbSymbolTableRecord
100
AcDbRegAppTableRecord
  2
ACAD_NAV_VCDISPLAY
 70
     0
  0
APPID
  5
425
330
357
100
AcDbSymbolTableRecord
100
AcDbRegAppTableRecord
  2
ACAD_MLEADERVER
 70
     0
  0
ENDTAB
  0
TABLE
  2
DIMSTYLE
  5
358
330
0
100
AcDbSymbolTable
 70
     2
100
AcDbDimStyleTable
 71
     0
  0
DIMSTYLE
105
3A5
330
358
100
AcDbSymbolTableRecord
100
AcDbDimStyleTableRecord
  2
STANDARD
 70
     0
279
     2
340
3A3
  0
ENDTAB
  0
TABLE
  2
BLOCK_RECORD
  5
34F
330
0
100
AcDbSymbolTable
 70
     0
  0
BLOCK_RECORD
  5
3BD
330
34F
100
AcDbSymbolTableRecord
100
AcDbBlockTableRecord
  2
*Model_Space
340
3C0
  0
BLOCK_RECORD
  5
3B9
330
34F
100
AcDbSymbolTableRecord
100
AcDbBlockTableRecord
  2
*Paper_Space
340
3BC
  0
ENDTAB
  0
ENDSEC
  0
SECTION
  2
BLOCKS
  0
BLOCK
  5
3BE
330
3BD
100
AcDbEntity
  8
0
100
AcDbBlockBegin
  2
*Model_Space
 70
     0
 10
0.0
 20
0.0
 30
0.0
  3
*Model_Space
  1

  0
ENDBLK
  5
3BF
330
3BD
100
AcDbEntity
  8
0
100
AcDbBlockEnd
  0
BLOCK
  5
3BA
330
3B9
100
AcDbEntity
 67
     1
  8
0
100
AcDbBlockBegin
  2
*Paper_Space
 70
     0
 10
0.0
 20
0.0
 30
0.0
  3
*Paper_Space
  1

  0
ENDBLK
  5
3BB
330
3B9
100
AcDbEntity
 67
     1
  8
0
100
AcDbBlockEnd
  0
ENDSEC
  0
SECTION
  2
ENTITIES
  0
LINE
  5
2E
330
3BD
100
AcDbEntity
  8
HIBINO-BASE
  6
Continuous
 62
     7
100
AcDbLine
 10
-1799.999999909999
 20
2649.999999870001
 30
0.0
 11
1800.0
 21
2649.999999870001
 31
0.0
  0
LINE
  5
2F
330
3BD
100
AcDbEntity
  8
HIBINO-BASE
  6
Continuous
 62
     7
100
AcDbLine
 10
1800.0
 20
-2550.0
 30
0.0
 11
-1799.999999909999
 21
-2550.0
 31
0.0
  0
LINE
  5
30
330
3BD
100
AcDbEntity
  8
HIBINO-BASE
  6
Continuous
 62
     7
100
AcDbLine
 10
-1799.999999909999
 20
-2550.0
 30
0.0
 11
-1799.999999909999
 21
2649.999999870001
 31
0.0
  0
LINE
  5
31
330
3BD
100
AcDbEntity
  8
HIBINO-BASE
  6
Continuous
 62
     7
100
AcDbLine
 10
1800.0
 20
2649.999999870001
 30
0.0
 11
1800.0
 21
-2550.0
 31
0.0
  0
LINE
  5
32
330
3BD
100
AcDbEntity
  8
HIBINO-BASE
  6
Continuous
 62
     7
100
AcDbLine
 10
0.0000000450005757
 20
-2100.00000001125
 30
0.0
 11
1800.0
 21
-2100.00000001125
 31
0.0
  0
LINE
  5
33
330
3BD
100
AcDbEntity
  8
HIBINO-BASE
  6
Continuous
 62
     7
100
AcDbLine
 10
0.0000000450005757
 20
-2550.0
 30
0.0
 11
0.0000000450005757
 21
-2100.00000001125
 31
0.0
  0
TEXT
  5
34
330
3BD
100
AcDbEntity
  8
HIBINO-BASE
 62
     7
100
AcDbText
 10
18.00000004455068
 20
-2150.173866676662
 30
0.0
 40
32.57682291585224
  1
NOTE
 41
0.7
 11
18.00000004455069
 21
-2117.59704376081
 31
0.0
100
AcDbText
 73
     3
  0
LINE
  5
35
330
3BD
100
AcDbEntity
  8
HIBINO-BASE
  6
Continuous
 62
     7
100
AcDbLine
 10
700.0000000275009
 20
-2550.0
 30
0.0
 11
700.0000000275009
 21
-2100.00000001125
 31
0.0
  0
TEXT
  5
36
330
3BD
100
AcDbEntity
  8
HIBINO-BASE
 62
     7
100
AcDbText
 10
718.0000000270503
 20
-2150.173866676662
 30
0.0
 40
32.57682291585224
  1
TITLE
 41
0.7
 11
718.0000000270503
 21
-2117.59704376081
 31
0.0
100
AcDbText
 73
     3
  0
LINE
  5
37
330
3BD
100
AcDbEntity
  8
HIBINO-BASE
  6
Continuous
 62
     7
100
AcDbLine
 10
0.0000000450005757
 20
-2350.000000005
 30
0.0
 11
1800.0
 21
-2350.000000005
 31
0.0
  0
TEXT
  5
38
330
3BD
100
AcDbEntity
  8
HIBINO-BASE
 62
     7
100
AcDbText
 10
968.0000000208002
 20
-2399.04746667044
 30
0.0
 40
32.57682291585224
  1
DRAWN
 41
0.7
 11
968.0000000208002
 21
-2366.470643754588
 31
0.0
100
AcDbText
 73
     3
  0
TEXT
  5
39
330
3BD
100
AcDbEntity
  8
HIBINO-BASE
 62
     7
100
AcDbText
 10
468.0000000333004
 20
-2399.04746667044
 30
0.0
 40
32.57682291585224
  1
DATE
 41
0.7
 11
468.0000000333004
 21
-2366.470643754588
 31
0.0
100
AcDbText
 73
     3
  0
TEXT
  5
3A
330
3BD
100
AcDbEntity
  8
HIBINO-BASE
 62
     7
100
AcDbText
 10
268.0000000383004
 20
-2399.04746667044
 30
0.0
 40
32.57682291585224
  1
SCALE
 41
0.7
 11
268.0000000383004
 21
-2366.470643754588
 31
0.0
100
AcDbText
 73
     3
  0
TEXT
  5
3B
330
3BD
100
AcDbEntity
  8
HIBINO-BASE
 62
     7
100
AcDbText
 10
718.0000000270503
 20
-2399.04746667044
 30
0.0
 40
32.57682291585224
  1
DESIGN
 41
0.7
 11
718.0000000270503
 21
-2366.470643754588
 31
0.0
100
AcDbText
 73
     3
  0
TEXT
  5
3C
330
3BD
100
AcDbEntity
  8
HIBINO-BASE
 62
     7
100
AcDbText
 10
1468.0000000083
 20
-2399.04746667044
 30
0.0
 40
32.57682291585224
  1
DRAWING NO.
 41
0.7
 11
1468.0000000083
 21
-2366.470643754588
 31
0.0
100
AcDbText
 73
     3
  0
TEXT
  5
3D
330
3BD
100
AcDbEntity
  8
HIBINO-BASE
 62
     7
100
AcDbText
 10
1218.00000001455
 20
-2399.04746667044
 30
0.0
 40
32.57682291585224
  1
CHECK
 41
0.7
 11
1218.00000001455
 21
-2366.470643754588
 31
0.0
100
AcDbText
 73
     3
  0
LINE
  5
3E
330
3BD
100
AcDbEntity
  8
HIBINO-BASE
  6
Continuous
 62
     7
100
AcDbLine
 10
287.5000000378131
 20
-2525.000000000625
 30
0.0
 11
362.5000000359384
 21
-2450.0000000025
 31
0.0
  0
TEXT
  5
3F
330
3BD
100
AcDbEntity
  8
HIBINO-BASE
 62
     7
100
AcDbText
 10
275.0000000381256
 20
-2472.178866668612
 30
0.0
 40
32.57682291585224
  1
1
 41
0.7
 11
275.0000000381256
 21
-2439.60204375276
 31
0.0
100
AcDbText
 73
     3
  0
LINE
  5
40
330
3BD
100
AcDbEntity
  8
HIBINO-BASE
  6
Continuous
 62
     7
100
AcDbLine
 10
250.0000000387506
 20
-2550.0
 30
0.0
 11
250.0000000387506
 21
-2350.000000005
 31
0.0
  0
LINE
  5
41
330
3BD
100
AcDbEntity
  8
HIBINO-BASE
  6
Continuous
 62
     7
100
AcDbLine
 10
450.0000000337503
 20
-2550.0
 30
0.0
 11
450.0000000337503
 21
-2350.000000005
 31
0.0
  0
LINE
  5
42
330
3BD
100
AcDbEntity
  8
HIBINO-BASE
  6
Continuous
 62
     7
100
AcDbLine
 10
950.0000000212498
 20
-2350.000000005
 30
0.0
 11
950.0000000212498
 21
-2550.0
 31
0.0
  0
LINE
  5
43
330
3BD
100
AcDbEntity
  8
HIBINO-BASE
  6
Continuous
 62
     7
100
AcDbLine
 10
1450.00000000875
 20
-2350.000000005
 30
0.0
 11
1450.00000000875
 21
-2550.0
 31
0.0
  0
LINE
  5
44
330
3BD
100
AcDbEntity
  8
HIBINO-BASE
  6
Continuous
 62
     7
100
AcDbLine
 10
1200.000000015
 20
-2550.0
 30
0.0
 11
1200.000000015
 21
-2350.000000005
 31
0.0
  0
TEXT
  5
45
330
3BD
100
AcDbEntity
  8
HIBINO-BASE
 62
     7
100
AcDbText
 10
467.1308000333225
 20
-2492.727066668097
 30
0.0
 40
32.57682291585224
  1
'17.05.
 41
0.7
 11
467.1308000333225
 21
-2460.150243752245
 31
0.0
100
AcDbText
 73
     3
  0
TEXT
  5
46
330
3BD
100
AcDbEntity
  8
HIBINO-BASE
 62
     7
100
AcDbText
 10
350.0000000362505
 20
-2509.678866667675
 30
0.0
 40
32.57682291585224
  1
20
 41
0.7
 11
350.0000000362505
 21
-2477.102043751822
 31
0.0
100
AcDbText
 73
     3
  0
TEXT
  5
47
330
3BD
100
AcDbEntity
  8
HIBINO-BASE
 62
     7
100
AcDbText
 10
980.1162002411901
 20
-2492.727066668097
 30
0.0
 40
32.57682291585224
  1
N.Sasaki
 41
0.7
 11
980.1162002411901
 21
-2460.150243752245
 31
0.0
100
AcDbText
 73
     3
  0
TEXT
  5
48
330
3BD
100
AcDbEntity
  8
HIBINO-BASE
 62
     7
100
AcDbText
 10
77.66666670972599
 20
-2510.480000000988
 30
0.0
 40
65.15364583170448
  1
A4
 41
0.7
 11
77.66666670972599
 21
-2445.326354169283
 31
0.0
100
AcDbText
 73
     3
  0
TEXT
  5
49
330
3BD
100
AcDbEntity
  8
HIBINO-BASE
 62
     7
100
AcDbText
 10
19.16666671118797
 20
-2402.389100003689
 30
0.0
 40
32.57682291585224
  1
PAPER SIZE
 41
0.7
 11
19.16666671118797
 21
-2369.812277087837
 31
0.0
100
AcDbText
 73
     3
  0
TEXT
  5
4A
330
3BD
100
AcDbEntity
  8
HIBINO-BASE
 62
     7
100
AcDbText
 10
-1656.319999913591
 20
-2678.173555996795
 30
0.0
 40
72.00088359194997
  1
Hibino Corporation
 41
0.7
 11
-1656.319999913591
 21
-2606.172672404845
 31
0.0
100
AcDbText
 73
     3
  0
TEXT
  5
4B
330
3BD
100
AcDbEntity
  8
HIBINO-BASE
 62
     7
100
AcDbText
 10
1001.367800019966
 20
-2678.173555996795
 30
0.0
 40
72.00088359194997
  1
ヒビノ株式会社
 41
0.7
 11
1001.367800019966
 21
-2606.172672404845
 31
0.0
100
AcDbText
 73
     3
  0
TEXT
  5
4C
330
3BD
100
AcDbEntity
  8
SPEC
 62
     7
100
AcDbText
 10
-981.9999999099987
 20
1790.758355425555
 30
0.0
 40
38.00629340277778
  1
684×569×684mm(除突起部)
 41
0.7
 11
-981.9999999099987
 21
1828.764648828333
 31
0.0
100
AcDbText
 73
     3
  0
TEXT
  5
4D
330
3BD
100
AcDbEntity
  8
SPEC
 62
     7
100
AcDbText
 10
-1624.999999909999
 20
2477.86539987
 30
0.0
 40
48.86523437500001
  1
仕様
 41
0.7
 11
-1624.999999909999
 21
2526.730634245
 31
0.0
100
AcDbText
 73
     3
  0
LINE
  5
4E
330
3BD
100
AcDbEntity
  8
SPEC
  6
Continuous
 62
     7
100
AcDbLine
 10
-1649.999999909999
 20
2449.999999870001
 30
0.0
 11
1300.000000090001
 21
2449.999999870001
 31
0.0
  0
LINE
  5
4F
330
3BD
100
AcDbEntity
  8
SPEC
  6
Continuous
 62
     7
100
AcDbLine
 10
-1649.999999909999
 20
2374.99999987
 30
0.0
 11
1300.000000090001
 21
2374.99999987
 31
0.0
  0
LINE
  5
50
330
3BD
100
AcDbEntity
  8
SPEC
  6
Continuous
 62
     7
100
AcDbLine
 10
-1649.999999909999
 20
2449.999999870001
 30
0.0
 11
-1649.999999909999
 21
1699.99999987
 31
0.0
  0
LINE
  5
51
330
3BD
100
AcDbEntity
  8
SPEC
  6
Continuous
 62
     7
100
AcDbLine
 10
-999.9999999099989
 20
2449.999999870001
 30
0.0
 11
-999.9999999099989
 21
1699.99999987
 31
0.0
  0
LINE
  5
52
330
3BD
100
AcDbEntity
  8
SPEC
  6
Continuous
 62
     7
100
AcDbLine
 10
1300.000000090001
 20
2449.999999870001
 30
0.0
 11
1300.000000090001
 21
1699.99999987
 31
0.0
  0
TEXT
  5
53
330
3BD
100
AcDbEntity
  8
SPEC
 62
     7
100
AcDbText
 10
-1631.999999909999
 20
1790.758355425555
 30
0.0
 40
38.00629340277778
  1
寸法(W×H×D)
 41
0.7
 11
-1631.999999909999
 21
1828.764648828333
 31
0.0
100
AcDbText
 73
     3
  0
TEXT
  5
54
330
3BD
100
AcDbEntity
  8
SPEC
 62
     7
100
AcDbText
 10
-1631.999999909999
 20
1715.758355425555
 30
0.0
 40
38.00629340277778
  1
質量
 41
0.7
 11
-1631.999999909999
 21
1753.764648828333
 31
0.0
100
AcDbText
 73
     3
  0
TEXT
  5
55
330
3BD
100
AcDbEntity
  8
SPEC
 62
     7
100
AcDbText
 10
-981.9999999099987
 20
1715.758355425555
 30
0.0
 40
38.00629340277778
  1
36kg
 41
0.7
 11
-981.9999999099987
 21
1753.764648828333
 31
0.0
100
AcDbText
 73
     3
  0
LINE
  5
56
330
3BD
100
AcDbEntity
  8
SPEC
  6
Continuous
 62
     7
100
AcDbLine
 10
-1649.999999909999
 20
2299.999999870001
 30
0.0
 11
1300.000000090001
 21
2299.999999870001
 31
0.0
  0
LINE
  5
57
330
3BD
100
AcDbEntity
  8
SPEC
  6
Continuous
 62
     7
100
AcDbLine
 10
-1649.999999909999
 20
2224.99999987
 30
0.0
 11
1300.000000090001
 21
2224.99999987
 31
0.0
  0
LINE
  5
58
330
3BD
100
AcDbEntity
  8
SPEC
  6
Continuous
 62
     7
100
AcDbLine
 10
-1649.999999909999
 20
2149.999999870001
 30
0.0
 11
1300.000000090001
 21
2149.999999870001
 31
0.0
  0
LINE
  5
59
330
3BD
100
AcDbEntity
  8
SPEC
  6
Continuous
 62
     7
100
AcDbLine
 10
-1649.999999909999
 20
2074.999999870001
 30
0.0
 11
1300.000000090001
 21
2074.999999870001
 31
0.0
  0
LINE
  5
5A
330
3BD
100
AcDbEntity
  8
SPEC
  6
Continuous
 62
     7
100
AcDbLine
 10
-1649.999999909999
 20
1999.99999987
 30
0.0
 11
1300.000000090001
 21
1999.99999987
 31
0.0
  0
LINE
  5
5B
330
3BD
100
AcDbEntity
  8
SPEC
  6
Continuous
 62
     7
100
AcDbLine
 10
-1649.999999909999
 20
1924.99999987
 30
0.0
 11
1300.000000090001
 21
1924.99999987
 31
0.0
  0
LINE
  5
5C
330
3BD
100
AcDbEntity
  8
SPEC
  6
Continuous
 62
     7
100
AcDbLine
 10
-1649.999999909999
 20
1849.99999987
 30
0.0
 11
1300.000000090001
 21
1849.99999987
 31
0.0
  0
LINE
  5
5D
330
3BD
100
AcDbEntity
  8
SPEC
  6
Continuous
 62
     7
100
AcDbLine
 10
-1649.999999909999
 20
1774.99999987
 30
0.0
 11
1300.000000090001
 21
1774.99999987
 31
0.0
  0
LINE
  5
5E
330
3BD
100
AcDbEntity
  8
SPEC
  6
Continuous
 62
     7
100
AcDbLine
 10
-1649.999999909999
 20
1699.99999987
 30
0.0
 11
1300.000000090001
 21
1699.99999987
 31
0.0
  0
TEXT
  5
5F
330
3BD
100
AcDbEntity
  8
SPEC
 62
     7
100
AcDbText
 10
-1631.999999909999
 20
2390.758355425555
 30
0.0
 40
38.00629340277778
  1
周波数レンジ(-10dB)
 41
0.7
 11
-1631.999999909999
 21
2428.764648828333
 31
0.0
100
AcDbText
 73
     3
  0
TEXT
  5
60
330
3BD
100
AcDbEntity
  8
SPEC
 62
     7
100
AcDbText
 10
-1631.999999909999
 20
2315.758355425555
 30
0.0
 40
38.00629340277778
  1
最大音圧レベル
 41
0.7
 11
-1631.999999909999
 21
2353.764648828333
 31
0.0
100
AcDbText
 73
     3
  0
TEXT
  5
61
330
3BD
100
AcDbEntity
  8
SPEC
 62
     7
100
AcDbText
 10
-1631.999999909999
 20
2240.758355425555
 30
0.0
 40
38.00629340277778
  1
感度(1W、1m)
 41
0.7
 11
-1631.999999909999
 21
2278.764648828333
 31
0.0
100
AcDbText
 73
     3
  0
TEXT
  5
62
330
3BD
100
AcDbEntity
  8
SPEC
 62
     7
100
AcDbText
 10
-1631.999999909999
 20
2165.758355425555
 30
0.0
 40
38.00629340277778
  1
公称インピーダンス
 41
0.7
 11
-1631.999999909999
 21
2203.764648828333
 31
0.0
100
AcDbText
 73
     3
  0
TEXT
  5
63
330
3BD
100
AcDbEntity
  8
SPEC
 62
     7
100
AcDbText
 10
-1631.999999909999
 20
2090.758355425555
 30
0.0
 40
38.00629340277778
  1
許容入力
 41
0.7
 11
-1631.999999909999
 21
2128.764648828333
 31
0.0
100
AcDbText
 73
     3
  0
TEXT
  5
64
330
3BD
100
AcDbEntity
  8
SPEC
 62
     7
100
AcDbText
 10
-1631.999999909999
 20
2015.758355425555
 30
0.0
 40
38.00629340277778
  1
ドライバー構成
 41
0.7
 11
-1631.999999909999
 21
2053.764648828332
 31
0.0
100
AcDbText
 73
     3
  0
TEXT
  5
65
330
3BD
100
AcDbEntity
  8
SPEC
 62
     7
100
AcDbText
 10
-1631.999999909999
 20
1940.758355425555
 30
0.0
 40
38.00629340277778
  1
入力端子
 41
0.7
 11
-1631.999999909999
 21
1978.764648828333
 31
0.0
100
AcDbText
 73
     3
  0
TEXT
  5
66
330
3BD
100
AcDbEntity
  8
SPEC
 62
     7
100
AcDbText
 10
-1631.999999909999
 20
1865.758355425555
 30
0.0
 40
38.00629340277778
  1
エンクロージャー
 41
0.7
 11
-1631.999999909999
 21
1903.764648828333
 31
0.0
100
AcDbText
 73
     3
  0
TEXT
  5
67
330
3BD
100
AcDbEntity
  8
SPEC
 62
     7
100
AcDbText
 10
-981.9999999099993
 20
2390.758355425555
 30
0.0
 40
38.00629340277778
  1
28Hz～150Hz
 41
0.7
 11
-981.9999999099993
 21
2428.764648828333
 31
0.0
100
AcDbText
 73
     3
  0
TEXT
  5
68
330
3BD
100
AcDbEntity
  8
SPEC
 62
     7
100
AcDbText
 10
-981.9999999099993
 20
2315.758355425555
 30
0.0
 40
38.00629340277778
  1
135dB
 41
0.7
 11
-981.9999999099993
 21
2353.764648828333
 31
0.0
100
AcDbText
 73
     3
  0
TEXT
  5
69
330
3BD
100
AcDbEntity
  8
SPEC
 62
     7
100
AcDbText
 10
-981.9999999099987
 20
2240.758355425555
 30
0.0
 40
38.00629340277778
  1
96dB
 41
0.7
 11
-981.9999999099987
 21
2278.764648828333
 31
0.0
100
AcDbText
 73
     3
  0
TEXT
  5
6A
330
3BD
100
AcDbEntity
  8
SPEC
 62
     7
100
AcDbText
 10
-981.9999999099987
 20
2165.758355425555
 30
0.0
 40
38.00629340277778
  1
8Ω
 41
0.7
 11
-981.9999999099987
 21
2203.764648828333
 31
0.0
100
AcDbText
 73
     3
  0
TEXT
  5
6B
330
3BD
100
AcDbEntity
  8
SPEC
 62
     7
100
AcDbText
 10
-981.9999999099987
 20
2090.758355425555
 30
0.0
 40
38.00629340277778
  1
600W(連続)、2,400W(ピーク)
 41
0.7
 11
-981.9999999099987
 21
2128.764648828333
 31
0.0
100
AcDbText
 73
     3
  0
TEXT
  5
6C
330
3BD
100
AcDbEntity
  8
SPEC
 62
     7
100
AcDbText
 10
-981.9999999099987
 20
2015.758355425555
 30
0.0
 40
38.00629340277778
  1
2279H(18インチ(460mm))
 41
0.7
 11
-981.9999999099987
 21
2053.764648828332
 31
0.0
100
AcDbText
 73
     3
  0
TEXT
  5
6D
330
3BD
100
AcDbEntity
  8
SPEC
 62
     7
100
AcDbText
 10
-981.9999999099987
 20
1940.758355425555
 30
0.0
 40
38.00629340277778
  1
4Pスピコン×2
 41
0.7
 11
-981.9999999099987
 21
1978.764648828333
 31
0.0
100
AcDbText
 73
     3
  0
TEXT
  5
6E
330
3BD
100
AcDbEntity
  8
SPEC
 62
     7
100
AcDbText
 10
-981.9999999099987
 20
1865.758355425555
 30
0.0
 40
38.00629340277778
  1
18mm合板、Duraflex仕上げ
 41
0.7
 11
-981.9999999099987
 21
1903.764648828333
 31
0.0
100
AcDbText
 73
     3
  0
TEXT
  5
6F
330
3BD
100
AcDbEntity
  8
DIMNSIONS
 62
     7
100
AcDbText
 10
-399.9999999449994
 20
-2304.610200006135
 30
0.0
 40
48.86523437377837
  1
(単位：mm)
 41
0.7
 11
-399.9999999449994
 21
-2255.744965632356
 31
0.0
100
AcDbText
 73
     3
  0
LINE
  5
70
330
3BD
100
AcDbEntity
  8
DIMNSIONS
  6
Continuous
 62
     7
100
AcDbLine
 10
-1442.0
 20
-1724.5
 30
0.0
 11
-1442.0
 21
-1839.999999881251
 31
0.0
  0
LINE
  5
71
330
3BD
100
AcDbEntity
  8
DIMNSIONS
  6
Continuous
 62
     7
100
AcDbLine
 10
-757.9478914922729
 20
-1724.149973336353
 30
0.0
 11
-757.9478914922729
 21
-1839.999999881251
 31
0.0
  0
LINE
  5
72
330
3BD
100
AcDbEntity
  8
DIMNSIONS
  6
Continuous
 62
     7
100
AcDbLine
 10
-1442.0
 20
-1799.999999881251
 30
0.0
 11
-757.9478914922729
 21
-1799.999999881251
 31
0.0
  0
LINE
  5
73
330
3BD
100
AcDbEntity
  8
DIMNSIONS
  6
Continuous
 62
     7
100
AcDbLine
 10
-1442.0
 20
-1799.999999881251
 30
0.0
 11
-1391.987548828125
 21
-1786.599203978245
 31
0.0
  0
LINE
  5
74
330
3BD
100
AcDbEntity
  8
DIMNSIONS
  6
Continuous
 62
     7
100
AcDbLine
 10
-1442.0
 20
-1799.999999881251
 30
0.0
 11
-1391.987548828125
 21
-1813.400795784255
 31
0.0
  0
LINE
  5
75
330
3BD
100
AcDbEntity
  8
DIMNSIONS
  6
Continuous
 62
     7
100
AcDbLine
 10
-757.9478914922729
 20
-1799.999999881251
 30
0.0
 11
-807.960342664148
 21
-1813.400795784255
 31
0.0
  0
LINE
  5
76
330
3BD
100
AcDbEntity
  8
DIMNSIONS
  6
Continuous
 62
     7
100
AcDbLine
 10
-757.9478914922729
 20
-1799.999999881251
 30
0.0
 11
-807.960342664148
 21
-1786.599203978245
 31
0.0
  0
TEXT
  5
77
330
3BD
100
AcDbEntity
  8
DIMNSIONS
 62
     7
100
AcDbText
 10
-1152.890612412803
 20
-1780.122222103472
 30
0.0
 40
54.29470486111111
  1
684
 41
0.7
 11
-1152.890612412803
 21
-1725.827517242361
 31
0.0
100
AcDbText
 73
     3
  0
LINE
  5
78
330
3BD
100
AcDbEntity
  8
DIMNSIONS
  6
Continuous
 62
     7
100
AcDbLine
 10
-1453.451711483705
 20
-1700.0
 30
0.0
 11
-1615.0
 21
-1700.0
 31
0.0
  0
LINE
  5
79
330
3BD
100
AcDbEntity
  8
DIMNSIONS
  6
Continuous
 62
     7
100
AcDbLine
 10
-1463.951711483705
 20
-1131.0
 30
0.0
 11
-1615.0
 21
-1131.0
 31
0.0
  0
LINE
  5
7A
330
3BD
100
AcDbEntity
  8
DIMNSIONS
  6
Continuous
 62
     7
100
AcDbLine
 10
-1575.0
 20
-1700.0
 30
0.0
 11
-1575.0
 21
-1131.0
 31
0.0
  0
LINE
  5
7B
330
3BD
100
AcDbEntity
  8
DIMNSIONS
  6
Continuous
 62
     7
100
AcDbLine
 10
-1575.0
 20
-1700.0
 30
0.0
 11
-1588.400795903005
 21
-1649.987548828125
 31
0.0
  0
LINE
  5
7C
330
3BD
100
AcDbEntity
  8
DIMNSIONS
  6
Continuous
 62
     7
100
AcDbLine
 10
-1575.0
 20
-1700.0
 30
0.0
 11
-1561.599204096995
 21
-1649.987548828125
 31
0.0
  0
LINE
  5
7D
330
3BD
100
AcDbEntity
  8
DIMNSIONS
  6
Continuous
 62
     7
100
AcDbLine
 10
-1575.0
 20
-1131.0
 30
0.0
 11
-1561.599204096995
 21
-1181.012451171875
 31
0.0
  0
LINE
  5
7E
330
3BD
100
AcDbEntity
  8
DIMNSIONS
  6
Continuous
 62
     7
100
AcDbLine
 10
-1575.0
 20
-1131.0
 30
0.0
 11
-1588.400795903005
 21
-1181.012451171875
 31
0.0
  0
TEXT
  5
7F
330
3BD
100
AcDbEntity
  8
DIMNSIONS
 62
     7
100
AcDbText
 10
-1594.877777777778
 20
-1468.416666666667
 30
0.0
 40
54.29470486111111
  1
569
 50
90.0
 41
0.7
 11
-1649.172482638889
 21
-1468.416666666667
 31
0.0
100
AcDbText
 73
     3
  0
LINE
  5
80
330
3BD
100
AcDbEntity
  8
DIMNSIONS
  6
Continuous
 62
     7
100
AcDbLine
 10
-1463.739059933869
 20
-1700.0
 30
0.0
 11
-1615.0
 21
-1700.0
 31
0.0
  0
LINE
  5
81
330
3BD
100
AcDbEntity
  8
DIMNSIONS
  6
Continuous
 62
     7
100
AcDbLine
 10
-1452.156
 20
-1706.8
 30
0.0
 11
-1615.0
 21
-1706.8
 31
0.0
  0
LINE
  5
82
330
3BD
100
AcDbEntity
  8
DIMNSIONS
  6
Continuous
 62
     7
100
AcDbLine
 10
-1575.0
 20
-1706.8
 30
0.0
 11
-1575.0
 21
-1700.0
 31
0.0
  0
LINE
  5
83
330
3BD
100
AcDbEntity
  8
DIMNSIONS
  6
Continuous
 62
     7
100
AcDbLine
 10
-1575.0
 20
-1700.0
 30
0.0
 11
-1575.0
 21
-1600.0
 31
0.0
  0
LINE
  5
84
330
3BD
100
AcDbEntity
  8
DIMNSIONS
  6
Continuous
 62
     7
100
AcDbLine
 10
-1575.0
 20
-1700.0
 30
0.0
 11
-1588.400795903005
 21
-1649.987548828125
 31
0.0
  0
LINE
  5
85
330
3BD
100
AcDbEntity
  8
DIMNSIONS
  6
Continuous
 62
     7
100
AcDbLine
 10
-1575.0
 20
-1700.0
 30
0.0
 11
-1561.599204096995
 21
-1649.987548828125
 31
0.0
  0
LINE
  5
86
330
3BD
100
AcDbEntity
  8
DIMNSIONS
  6
Continuous
 62
     7
100
AcDbLine
 10
-1575.0
 20
-1706.8
 30
0.0
 11
-1575.0
 21
-1830.833333333333
 31
0.0
  0
LINE
  5
87
330
3BD
100
AcDbEntity
  8
DIMNSIONS
  6
Continuous
 62
     7
100
AcDbLine
 10
-1575.0
 20
-1706.8
 30
0.0
 11
-1561.599204096995
 21
-1756.812451171875
 31
0.0
  0
LINE
  5
88
330
3BD
100
AcDbEntity
  8
DIMNSIONS
  6
Continuous
 62
     7
100
AcDbLine
 10
-1575.0
 20
-1706.8
 30
0.0
 11
-1588.400795903005
 21
-1756.812451171875
 31
0.0
  0
TEXT
  5
89
330
3BD
100
AcDbEntity
  8
DIMNSIONS
 62
     7
100
AcDbText
 10
-1594.877777777778
 20
-1830.833333333333
 30
0.0
 40
54.29470486111111
  1
6.8
 50
90.0
 41
0.7
 11
-1649.172482638889
 21
-1830.833333333333
 31
0.0
100
AcDbText
 73
     3
  0
LINE
  5
8A
330
3BD
100
AcDbEntity
  8
DIMNSIONS
  6
Continuous
 62
     7
100
AcDbLine
 10
-1375.22900754688
 20
-1050.0
 30
0.0
 11
-1615.0
 21
-1050.0
 31
0.0
  0
LINE
  5
8B
330
3BD
100
AcDbEntity
  8
DIMNSIONS
  6
Continuous
 62
     7
100
AcDbLine
 10
-1464.890771417574
 20
-366.0
 30
0.0
 11
-1615.0
 21
-366.0
 31
0.0
  0
LINE
  5
8C
330
3BD
100
AcDbEntity
  8
DIMNSIONS
  6
Continuous
 62
     7
100
AcDbLine
 10
-1575.0
 20
-1050.0
 30
0.0
 11
-1575.0
 21
-366.0
 31
0.0
  0
LINE
  5
8D
330
3BD
100
AcDbEntity
  8
DIMNSIONS
  6
Continuous
 62
     7
100
AcDbLine
 10
-1575.0
 20
-1050.0
 30
0.0
 11
-1588.400795903005
 21
-999.9875488281249
 31
0.0
  0
LINE
  5
8E
330
3BD
100
AcDbEntity
  8
DIMNSIONS
  6
Continuous
 62
     7
100
AcDbLine
 10
-1575.0
 20
-1050.0
 30
0.0
 11
-1561.599204096995
 21
-999.9875488281249
 31
0.0
  0
LINE
  5
8F
330
3BD
100
AcDbEntity
  8
DIMNSIONS
  6
Continuous
 62
     7
100
AcDbLine
 10
-1575.0
 20
-366.0
 30
0.0
 11
-1561.599204096995
 21
-416.0124511718749
 31
0.0
  0
LINE
  5
90
330
3BD
100
AcDbEntity
  8
DIMNSIONS
  6
Continuous
 62
     7
100
AcDbLine
 10
-1575.0
 20
-366.0
 30
0.0
 11
-1588.400795903005
 21
-416.0124511718749
 31
0.0
  0
TEXT
  5
91
330
3BD
100
AcDbEntity
  8
DIMNSIONS
 62
     7
100
AcDbText
 10
-1594.877777777778
 20
-760.9166666666667
 30
0.0
 40
54.29470486111111
  1
684
 50
90.0
 41
0.7
 11
-1649.172482638889
 21
-760.9166666666667
 31
0.0
100
AcDbText
 73
     3
  0
LINE
  5
92
330
3BD
100
AcDbEntity
  8
DIMNSIONS
  6
Continuous
 62
     7
100
AcDbLine
 10
-1465.103422967409
 20
-366.0
 30
0.0
 11
-1615.0
 21
-366.0
 31
0.0
  0
LINE
  5
93
330
3BD
100
AcDbEntity
  8
DIMNSIONS
  6
Continuous
 62
     7
100
AcDbLine
 10
-1445.678
 20
-361.7875922585467
 30
0.0
 11
-1615.0
 21
-361.7875922585467
 31
0.0
  0
LINE
  5
94
330
3BD
100
AcDbEntity
  8
DIMNSIONS
  6
Continuous
 62
     7
100
AcDbLine
 10
-1575.0
 20
-361.7875922585467
 30
0.0
 11
-1575.0
 21
-366.0
 31
0.0
  0
LINE
  5
95
330
3BD
100
AcDbEntity
  8
DIMNSIONS
  6
Continuous
 62
     7
100
AcDbLine
 10
-1575.0
 20
-366.0
 30
0.0
 11
-1575.0
 21
-466.0
 31
0.0
  0
LINE
  5
96
330
3BD
100
AcDbEntity
  8
DIMNSIONS
  6
Continuous
 62
     7
100
AcDbLine
 10
-1575.0
 20
-366.0
 30
0.0
 11
-1561.599204096995
 21
-416.0124511718749
 31
0.0
  0
LINE
  5
97
330
3BD
100
AcDbEntity
  8
DIMNSIONS
  6
Continuous
 62
     7
100
AcDbLine
 10
-1575.0
 20
-366.0
 30
0.0
 11
-1588.400795903005
 21
-416.0124511718749
 31
0.0
  0
LINE
  5
98
330
3BD
100
AcDbEntity
  8
DIMNSIONS
  6
Continuous
 62
     7
100
AcDbLine
 10
-1575.0
 20
-361.7875922585467
 30
0.0
 11
-1575.0
 21
-244.1666666666666
 31
0.0
  0
LINE
  5
99
330
3BD
100
AcDbEntity
  8
DIMNSIONS
  6
Continuous
 62
     7
100
AcDbLine
 10
-1575.0
 20
-361.7875922585467
 30
0.0
 11
-1588.400795903005
 21
-311.7751410866717
 31
0.0
  0
LINE
  5
9A
330
3BD
100
AcDbEntity
  8
DIMNSIONS
  6
Continuous
 62
     7
100
AcDbLine
 10
-1575.0
 20
-361.7875922585467
 30
0.0
 11
-1561.599204096995
 21
-311.7751410866717
 31
0.0
  0
TEXT
  5
9B
330
3BD
100
AcDbEntity
  8
DIMNSIONS
 62
     7
100
AcDbText
 10
-1594.877777777778
 20
-350.0
 30
0.0
 40
54.29470486111111
  1
4.2
 50
90.0
 41
0.7
 11
-1649.172482638889
 21
-350.0
 31
0.0
100
AcDbText
 73
     3
  0
LINE
  5
9C
330
3BD
100
AcDbEntity
  8
DIMNSIONS
  6
Continuous
 62
     7
100
AcDbLine
 10
-1089.020145789097
 20
-758.6436012152502
 30
0.0
 11
-700.0
 21
-650.0
 31
0.0
  0
LINE
  5
9D
330
3BD
100
AcDbEntity
  8
DIMNSIONS
  6
Continuous
 62
     7
100
AcDbLine
 10
-1089.020145789097
 20
-758.6436012152502
 30
0.0
 11
-1044.180208765392
 21
-732.755251504168
 31
0.0
  0
LINE
  5
9E
330
3BD
100
AcDbEntity
  8
DIMNSIONS
  6
Continuous
 62
     7
100
AcDbLine
 10
-1089.020145789097
 20
-758.6436012152502
 30
0.0
 11
-1037.243446366932
 21
-758.6436012152502
 31
0.0
  0
LINE
  5
9F
330
3BD
100
AcDbEntity
  8
DIMNSIONS
  6
Continuous
 62
     7
100
AcDbLine
 10
-700.0
 20
-650.0
 30
0.0
 11
-660.0
 21
-650.0
 31
0.0
  0
TEXT
  5
A0
330
3BD
100
AcDbEntity
  8
DIMNSIONS
 62
     7
100
AcDbText
 10
-660.0
 20
-675.4000000000001
 30
0.0
 40
54.29470486111111
  1
M20ねじ込み式
 41
0.7
 11
-660.0
 21
-621.1052951388889
 31
0.0
100
AcDbText
 73
     3
  0
LINE
  5
A1
330
3BD
100
AcDbEntity
  8
DIMNSIONS
  6
Continuous
 62
     7
100
AcDbLine
 10
-1375.22900754688
 20
-1050.0
 30
0.0
 11
-1515.0
 21
-1050.0
 31
0.0
  0
LINE
  5
A2
330
3BD
100
AcDbEntity
  8
DIMNSIONS
  6
Continuous
 62
     7
100
AcDbLine
 10
-1140.0
 20
-761.71
 30
0.0
 11
-1515.0
 21
-761.71
 31
0.0
  0
LINE
  5
A3
330
3BD
100
AcDbEntity
  8
DIMNSIONS
  6
Continuous
 62
     7
100
AcDbLine
 10
-1475.0
 20
-1050.0
 30
0.0
 11
-1475.0
 21
-761.71
 31
0.0
  0
LINE
  5
A4
330
3BD
100
AcDbEntity
  8
DIMNSIONS
  6
Continuous
 62
     7
100
AcDbLine
 10
-1475.0
 20
-1050.0
 30
0.0
 11
-1488.400795903005
 21
-999.9875488281249
 31
0.0
  0
LINE
  5
A5
330
3BD
100
AcDbEntity
  8
DIMNSIONS
  6
Continuous
 62
     7
100
AcDbLine
 10
-1475.0
 20
-1050.0
 30
0.0
 11
-1461.599204096995
 21
-999.9875488281249
 31
0.0
  0
LINE
  5
A6
330
3BD
100
AcDbEntity
  8
DIMNSIONS
  6
Continuous
 62
     7
100
AcDbLine
 10
-1475.0
 20
-761.71
 30
0.0
 11
-1461.599204096995
 21
-811.7224511718751
 31
0.0
  0
LINE
  5
A7
330
3BD
100
AcDbEntity
  8
DIMNSIONS
  6
Continuous
 62
     7
100
AcDbLine
 10
-1475.0
 20
-761.71
 30
0.0
 11
-1488.400795903005
 21
-811.7224511718751
 31
0.0
  0
TEXT
  5
A8
330
3BD
100
AcDbEntity
  8
DIMNSIONS
 62
     7
100
AcDbText
 10
-1494.877777777778
 20
-958.7716666666668
 30
0.0
 40
54.29470486111111
  1
288
 50
90.0
 41
0.7
 11
-1549.172482638889
 21
-958.7716666666668
 31
0.0
100
AcDbText
 73
     3
  0
TEXT
  5
A9
330
3BD
100
AcDbEntity
  8
DIMNSIONS
 62
     7
100
AcDbText
 10
-660.0
 20
-745.9555555555555
 30
0.0
 40
54.29470486111111
  1
ポールソケット
 41
0.7
 11
-660.0
 21
-691.6608506944444
 31
0.0
100
AcDbText
 73
     3
  0
TEXT
  5
AA
330
3BD
100
AcDbEntity
  8
DATA
 62
     7
100
AcDbText
 10
1023.904173900463
 20
-852.1473524305555
 30
0.0
 40
54.29470486111111
  1
背面パネル拡大図
 41
0.7
 72
     1
 11
1200.0
 21
-825.0
 31
0.0
100
AcDbText
 73
     2
  0
LINE
  5
AB
330
3BD
100
AcDbEntity
  8
DATA
  6
Continuous
 62
     7
100
AcDbLine
 10
900.0
 20
-875.0
 30
0.0
 11
1500.0
 21
-875.0
 31
0.0
  0
TEXT
  5
AC
330
3BD
100
AcDbEntity
  8
DATA
 62
     7
100
AcDbText
 10
-1749.999999911249
 20
-2392.474444448382
 30
0.0
 40
38.00629340182763
  1
※仕様及び外観は予告なく変更されることがあります。
 41
0.7
 11
-1749.999999911249
 21
-2354.468151046555
 31
0.0
100
AcDbText
 73
     3
  0
TEXT
  5
AD
330
3BD
100
AcDbEntity
  8
DATA
 62
     7
100
AcDbText
 10
-1749.999999911249
 20
-2441.863333336036
 30
0.0
 40
38.00629340182763
  1
　また、同一商品でも若干の個体差があることがあります。ご了承ください。
 41
0.7
 11
-1749.999999911249
 21
-2403.857039934209
 31
0.0
100
AcDbText
 73
     3
  0
TEXT
  5
AE
330
3BD
100
AcDbEntity
  8
DATA
 62
     7
100
AcDbText
 10
1000.00000002
 20
-2182.38220000919
 30
0.0
 40
48.86523437377837
  1
JBL PROFESSIONAL
 41
0.7
 11
1000.00000002
 21
-2133.516965635411
 31
0.0
100
AcDbText
 73
     3
  0
TEXT
  5
AF
330
3BD
100
AcDbEntity
  8
DATA
 62
     7
100
AcDbText
 10
950.0000000212498
 20
-2251.921300007452
 30
0.0
 40
32.57682291585226
  1
サブウーファー
 41
0.7
 11
950.0000000212498
 21
-2219.3444770916
 31
0.0
100
AcDbText
 73
     3
  0
LINE
  5
B0
330
3BD
100
AcDbEntity
  8
DATA
  6
Continuous
 62
     7
100
AcDbLine
 10
-776.0482885162953
 20
-1131.0
 30
0.0
 11
-1423.951711483705
 21
-1131.0
 31
0.0
  0
LINE
  5
B1
330
3BD
100
AcDbEntity
  8
DATA
  6
Continuous
 62
     7
100
AcDbLine
 10
-776.0482885162953
 20
-1700.0
 30
0.0
 11
-1423.951711483705
 21
-1700.0
 31
0.0
  0
LINE
  5
B2
330
3BD
100
AcDbEntity
  8
DATA
  6
Continuous
 62
     7
100
AcDbLine
 10
-758.0
 20
-1149.0
 30
0.0
 11
-1442.0
 21
-1149.0
 31
0.0
  0
LINE
  5
B3
330
3BD
100
AcDbEntity
  8
DATA
  6
Continuous
 62
     7
100
AcDbLine
 10
-759.0000000000001
 20
-1150.0
 30
0.0
 11
-1441.0
 21
-1150.0
 31
0.0
  0
LINE
  5
B4
330
3BD
100
AcDbEntity
  8
DATA
  6
Continuous
 62
     7
100
AcDbLine
 10
-1441.0
 20
-1150.0
 30
0.0
 11
-1441.0
 21
-1681.0
 31
0.0
  0
LINE
  5
B5
330
3BD
100
AcDbEntity
  8
DATA
  6
Continuous
 62
     7
100
AcDbLine
 10
-1442.0
 20
-1684.5
 30
0.0
 11
-1442.0
 21
-1146.5
 31
0.0
  0
ARC
  5
B6
330
3BD
100
AcDbEntity
  8
DATA
  6
Continuous
 62
     7
100
AcDbCircle
 10
-1423.845385708912
 20
-1149.381571447993
 30
0.0
 40
18.38187895912876
100
AcDbArc
 50
90.33141618079735
 51
170.9810265399228
  0
LINE
  5
B7
330
3BD
100
AcDbEntity
  8
DATA
  6
Continuous
 62
     7
100
AcDbLine
 10
-1425.851711483705
 20
-1149.0
 30
0.0
 11
-1425.851711483705
 21
-1146.5
 31
0.0
  0
ARC
  5
B8
330
3BD
100
AcDbEntity
  8
DATA
  6
Continuous
 62
     7
100
AcDbCircle
 10
-1399.691993250215
 20
-1147.106354852569
 30
0.0
 40
26.16674462486304
100
AcDbArc
 50
142.0097296413289
 51
178.6721816405865
  0
LINE
  5
B9
330
3BD
100
AcDbEntity
  8
DATA
  6
Continuous
 62
     7
100
AcDbLine
 10
-1342.551711483704
 20
-1149.0
 30
0.0
 11
-1342.551711483704
 21
-1146.5
 31
0.0
  0
ARC
  5
BA
330
3BD
100
AcDbEntity
  8
DATA
  6
Continuous
 62
     7
100
AcDbCircle
 10
-1309.076786784912
 20
-1149.290135542168
 30
0.0
 40
33.59100236571555
100
AcDbArc
 50
147.009834037804
 51
175.2354090002718
  0
ARC
  5
BB
330
3BD
100
AcDbEntity
  8
DATA
  6
Continuous
 62
     7
100
AcDbCircle
 10
-1420.178628458851
 20
-1734.327445795895
 30
0.0
 40
551.0666488191786
100
AcDbArc
 50
83.4116296725133
 51
90.68343610973945
  0
ARC
  5
BC
330
3BD
100
AcDbEntity
  8
DATA
  6
Continuous
 62
     7
100
AcDbCircle
 10
-1360.734413083841
 20
-1204.075076314398
 30
0.0
 40
17.58670173173675
100
AcDbArc
 50
1.222055142762733
 51
77.57926618419656
  0
ARC
  5
BD
330
3BD
100
AcDbEntity
  8
DATA
  6
Continuous
 62
     7
100
AcDbCircle
 10
-1426.750094760816
 20
-1189.161531104981
 30
0.0
 40
5.861531327942779
100
AcDbArc
 50
90.01580327632893
 51
169.5660844140013
  0
LINE
  5
BE
330
3BD
100
AcDbEntity
  8
DATA
  6
Continuous
 62
     7
100
AcDbLine
 10
-1432.514702398949
 20
-1188.1
 30
0.0
 11
-1432.514702398949
 21
-1642.9
 31
0.0
  0
LINE
  5
BF
330
3BD
100
AcDbEntity
  8
DATA
  6
Continuous
 62
     7
100
AcDbLine
 10
-1432.514702398949
 20
-1188.1
 30
0.0
 11
-1359.551711483704
 21
-1201.535864022496
 31
0.0
  0
ARC
  5
C0
330
3BD
100
AcDbEntity
  8
DATA
  6
Continuous
 62
     7
100
AcDbCircle
 10
-1360.154598162681
 20
-1206.506076212179
 30
0.0
 40
5.00664374188584
100
AcDbArc
 50
357.7801906248644
 51
83.08381143307315
  0
LINE
  5
C1
330
3BD
100
AcDbEntity
  8
DATA
  6
Continuous
 62
     7
100
AcDbLine
 10
-1355.151711483705
 20
-1206.699999999999
 30
0.0
 11
-1355.151711483705
 21
-1624.3
 31
0.0
  0
LINE
  5
C2
330
3BD
100
AcDbEntity
  8
DATA
  6
Continuous
 62
     7
100
AcDbLine
 10
-1343.151711483705
 20
-1203.699999999999
 30
0.0
 11
-1343.151711483705
 21
-1627.3
 31
0.0
  0
LINE
  5
C3
330
3BD
100
AcDbEntity
  8
DATA
  6
Continuous
 62
     7
100
AcDbLine
 10
-1426.751711483704
 20
-1183.3
 30
0.0
 11
-1426.751711483704
 21
-1150.0
 31
0.0
  0
LINE
  5
C4
330
3BD
100
AcDbEntity
  8
DATA
  6
Continuous
 62
     7
100
AcDbLine
 10
-1342.551711483704
 20
-1150.0
 30
0.0
 11
-1342.551711483704
 21
-1682.0
 31
0.0
  0
ARC
  5
C5
330
3BD
100
AcDbEntity
  8
DATA
  6
Continuous
 62
     7
100
AcDbCircle
 10
-1423.845385708912
 20
-1681.618428552007
 30
0.0
 40
18.38187895912881
100
AcDbArc
 50
189.0189734600771
 51
269.6685838192026
  0
LINE
  5
C6
330
3BD
100
AcDbEntity
  8
DATA
  6
Continuous
 62
     7
100
AcDbLine
 10
-1425.851711483705
 20
-1682.0
 30
0.0
 11
-1425.851711483705
 21
-1684.5
 31
0.0
  0
ARC
  5
C7
330
3BD
100
AcDbEntity
  8
DATA
  6
Continuous
 62
     7
100
AcDbCircle
 10
-1399.691993250215
 20
-1683.893645147431
 30
0.0
 40
26.16674462486296
100
AcDbArc
 50
181.3278183594134
 51
217.990270358671
  0
LINE
  5
C8
330
3BD
100
AcDbEntity
  8
DATA
  6
Continuous
 62
     7
100
AcDbLine
 10
-1342.551711483704
 20
-1682.0
 30
0.0
 11
-1342.551711483704
 21
-1684.5
 31
0.0
  0
ARC
  5
C9
330
3BD
100
AcDbEntity
  8
DATA
  6
Continuous
 62
     7
100
AcDbCircle
 10
-1309.076786784912
 20
-1681.709864457832
 30
0.0
 40
33.59100236571553
100
AcDbArc
 50
184.7645909997282
 51
212.9901659621961
  0
ARC
  5
CA
330
3BD
100
AcDbEntity
  8
DATA
  6
Continuous
 62
     7
100
AcDbCircle
 10
-1420.178628458851
 20
-1096.672554204104
 30
0.0
 40
551.0666488191787
100
AcDbArc
 50
269.3165638902605
 51
276.5883703274866
  0
ARC
  5
CB
330
3BD
100
AcDbEntity
  8
DATA
  6
Continuous
 62
     7
100
AcDbCircle
 10
-1360.734413083841
 20
-1626.924923685602
 30
0.0
 40
17.58670173173646
100
AcDbArc
 50
282.4207338158034
 51
358.7779448572372
  0
ARC
  5
CC
330
3BD
100
AcDbEntity
  8
DATA
  6
Continuous
 62
     7
100
AcDbCircle
 10
-1426.750094760816
 20
-1641.838468895018
 30
0.0
 40
5.861531327943057
100
AcDbArc
 50
190.4339155859986
 51
269.9841967236711
  0
LINE
  5
CD
330
3BD
100
AcDbEntity
  8
DATA
  6
Continuous
 62
     7
100
AcDbLine
 10
-1432.514702398949
 20
-1642.9
 30
0.0
 11
-1359.551711483704
 21
-1629.464135977503
 31
0.0
  0
ARC
  5
CE
330
3BD
100
AcDbEntity
  8
DATA
  6
Continuous
 62
     7
100
AcDbCircle
 10
-1360.154598162681
 20
-1624.49392378782
 30
0.0
 40
5.006643741885715
100
AcDbArc
 50
276.9161885669269
 51
2.219809375135696
  0
LINE
  5
CF
330
3BD
100
AcDbEntity
  8
DATA
  6
Continuous
 62
     7
100
AcDbLine
 10
-1426.751711483704
 20
-1647.7
 30
0.0
 11
-1426.751711483704
 21
-1681.0
 31
0.0
  0
LINE
  5
D0
330
3BD
100
AcDbEntity
  8
DATA
  6
Continuous
 62
     7
100
AcDbLine
 10
-758.0
 20
-1681.65
 30
0.0
 11
-1442.0
 21
-1682.0
 31
0.0
  0
LINE
  5
D1
330
3BD
100
AcDbEntity
  8
DATA
  6
Continuous
 62
     7
100
AcDbLine
 10
-759.0000000000001
 20
-1681.0
 30
0.0
 11
-1441.0
 21
-1681.0
 31
0.0
  0
LINE
  5
D2
330
3BD
100
AcDbEntity
  8
DATA
  6
Continuous
 62
     7
100
AcDbLine
 10
-759.0000000000001
 20
-1150.0
 30
0.0
 11
-759.0000000000001
 21
-1681.0
 31
0.0
  0
LINE
  5
D3
330
3BD
100
AcDbEntity
  8
DATA
  6
Continuous
 62
     7
100
AcDbLine
 10
-758.0
 20
-1684.5
 30
0.0
 11
-758.0
 21
-1146.5
 31
0.0
  0
ARC
  5
D4
330
3BD
100
AcDbEntity
  8
DATA
  6
Continuous
 62
     7
100
AcDbCircle
 10
-776.1546142910879
 20
-1149.381571447993
 30
0.0
 40
18.38187895912881
100
AcDbArc
 50
9.018973460077216
 51
89.66858381920264
  0
LINE
  5
D5
330
3BD
100
AcDbEntity
  8
DATA
  6
Continuous
 62
     7
100
AcDbLine
 10
-774.148288516295
 20
-1149.0
 30
0.0
 11
-774.148288516295
 21
-1146.5
 31
0.0
  0
ARC
  5
D6
330
3BD
100
AcDbEntity
  8
DATA
  6
Continuous
 62
     7
100
AcDbCircle
 10
-800.3080067497846
 20
-1147.106354852569
 30
0.0
 40
26.16674462486296
100
AcDbArc
 50
1.327818359413524
 51
37.99027035867105
  0
LINE
  5
D7
330
3BD
100
AcDbEntity
  8
DATA
  6
Continuous
 62
     7
100
AcDbLine
 10
-857.4482885162952
 20
-1149.0
 30
0.0
 11
-857.4482885162952
 21
-1146.5
 31
0.0
  0
ARC
  5
D8
330
3BD
100
AcDbEntity
  8
DATA
  6
Continuous
 62
     7
100
AcDbCircle
 10
-890.9232132150879
 20
-1149.290135542168
 30
0.0
 40
33.59100236571553
100
AcDbArc
 50
4.764590999728208
 51
32.99016596219609
  0
ARC
  5
D9
330
3BD
100
AcDbEntity
  8
DATA
  6
Continuous
 62
     7
100
AcDbCircle
 10
-779.8213715411494
 20
-1734.327445795895
 30
0.0
 40
551.0666488191787
100
AcDbArc
 50
89.31656389026052
 51
96.58837032748671
  0
ARC
  5
DA
330
3BD
100
AcDbEntity
  8
DATA
  6
Continuous
 62
     7
100
AcDbCircle
 10
-839.2655869161584
 20
-1204.075076314398
 30
0.0
 40
17.58670173173646
100
AcDbArc
 50
102.4207338158034
 51
178.7779448572373
  0
ARC
  5
DB
330
3BD
100
AcDbEntity
  8
DATA
  6
Continuous
 62
     7
100
AcDbCircle
 10
-773.2499052391832
 20
-1189.161531104981
 30
0.0
 40
5.861531327943057
100
AcDbArc
 50
10.4339155859987
 51
89.98419672367106
  0
LINE
  5
DC
330
3BD
100
AcDbEntity
  8
DATA
  6
Continuous
 62
     7
100
AcDbLine
 10
-767.4852976010507
 20
-1188.1
 30
0.0
 11
-767.4852976010507
 21
-1642.9
 31
0.0
  0
LINE
  5
DD
330
3BD
100
AcDbEntity
  8
DATA
  6
Continuous
 62
     7
100
AcDbLine
 10
-767.4852976010507
 20
-1188.1
 30
0.0
 11
-840.4482885162952
 21
-1201.535864022496
 31
0.0
  0
ARC
  5
DE
330
3BD
100
AcDbEntity
  8
DATA
  6
Continuous
 62
     7
100
AcDbCircle
 10
-839.8454018373186
 20
-1206.506076212179
 30
0.0
 40
5.006643741885715
100
AcDbArc
 50
96.91618856692681
 51
182.2198093751357
  0
LINE
  5
DF
330
3BD
100
AcDbEntity
  8
DATA
  6
Continuous
 62
     7
100
AcDbLine
 10
-844.8482885162952
 20
-1206.699999999999
 30
0.0
 11
-844.8482885162952
 21
-1624.3
 31
0.0
  0
LINE
  5
E0
330
3BD
100
AcDbEntity
  8
DATA
  6
Continuous
 62
     7
100
AcDbLine
 10
-856.8482885162952
 20
-1203.699999999999
 30
0.0
 11
-856.8482885162952
 21
-1627.3
 31
0.0
  0
LINE
  5
E1
330
3BD
100
AcDbEntity
  8
DATA
  6
Continuous
 62
     7
100
AcDbLine
 10
-773.2482885162953
 20
-1183.3
 30
0.0
 11
-773.2482885162953
 21
-1150.0
 31
0.0
  0
LINE
  5
E2
330
3BD
100
AcDbEntity
  8
DATA
  6
Continuous
 62
     7
100
AcDbLine
 10
-857.4482885162952
 20
-1150.0
 30
0.0
 11
-857.4482885162952
 21
-1682.0
 31
0.0
  0
ARC
  5
E3
330
3BD
100
AcDbEntity
  8
DATA
  6
Continuous
 62
     7
100
AcDbCircle
 10
-776.1546142910879
 20
-1681.618428552007
 30
0.0
 40
18.38187895912876
100
AcDbArc
 50
270.3314161807973
 51
350.9810265399228
  0
LINE
  5
E4
330
3BD
100
AcDbEntity
  8
DATA
  6
Continuous
 62
     7
100
AcDbLine
 10
-774.148288516295
 20
-1682.0
 30
0.0
 11
-774.148288516295
 21
-1684.5
 31
0.0
  0
ARC
  5
E5
330
3BD
100
AcDbEntity
  8
DATA
  6
Continuous
 62
     7
100
AcDbCircle
 10
-800.3080067497846
 20
-1683.893645147431
 30
0.0
 40
26.16674462486304
100
AcDbArc
 50
322.0097296413289
 51
358.6721816405865
  0
LINE
  5
E6
330
3BD
100
AcDbEntity
  8
DATA
  6
Continuous
 62
     7
100
AcDbLine
 10
-857.4482885162952
 20
-1682.0
 30
0.0
 11
-857.4482885162952
 21
-1684.5
 31
0.0
  0
ARC
  5
E7
330
3BD
100
AcDbEntity
  8
DATA
  6
Continuous
 62
     7
100
AcDbCircle
 10
-890.9232132150879
 20
-1681.709864457832
 30
0.0
 40
33.59100236571555
100
AcDbArc
 50
327.0098340378038
 51
355.2354090002718
  0
ARC
  5
E8
330
3BD
100
AcDbEntity
  8
DATA
  6
Continuous
 62
     7
100
AcDbCircle
 10
-779.8213715411494
 20
-1096.672554204104
 30
0.0
 40
551.0666488191786
100
AcDbArc
 50
263.4116296725133
 51
270.6834361097394
  0
ARC
  5
E9
330
3BD
100
AcDbEntity
  8
DATA
  6
Continuous
 62
     7
100
AcDbCircle
 10
-839.2655869161584
 20
-1626.924923685602
 30
0.0
 40
17.58670173173675
100
AcDbArc
 50
181.2220551427627
 51
257.5792661841965
  0
ARC
  5
EA
330
3BD
100
AcDbEntity
  8
DATA
  6
Continuous
 62
     7
100
AcDbCircle
 10
-773.2499052391832
 20
-1641.838468895018
 30
0.0
 40
5.861531327942779
100
AcDbArc
 50
270.0158032763289
 51
349.5660844140012
  0
LINE
  5
EB
330
3BD
100
AcDbEntity
  8
DATA
  6
Continuous
 62
     7
100
AcDbLine
 10
-767.4852976010507
 20
-1642.9
 30
0.0
 11
-840.4482885162952
 21
-1629.464135977503
 31
0.0
  0
ARC
  5
EC
330
3BD
100
AcDbEntity
  8
DATA
  6
Continuous
 62
     7
100
AcDbCircle
 10
-839.8454018373186
 20
-1624.49392378782
 30
0.0
 40
5.00664374188584
100
AcDbArc
 50
177.7801906248642
 51
263.0838114330732
  0
LINE
  5
ED
330
3BD
100
AcDbEntity
  8
DATA
  6
Continuous
 62
     7
100
AcDbLine
 10
-773.2482885162953
 20
-1647.7
 30
0.0
 11
-773.2482885162953
 21
-1681.0
 31
0.0
  0
CIRCLE
  5
EE
330
3BD
100
AcDbEntity
  8
DATA
  6
Continuous
 62
     7
100
AcDbCircle
 10
-1100.0
 20
-1159.4
 30
0.0
 40
5.0
  0
CIRCLE
  5
EF
330
3BD
100
AcDbEntity
  8
DATA
  6
Continuous
 62
     7
100
AcDbCircle
 10
-1100.0
 20
-1159.4
 30
0.0
 40
3.0
  0
LINE
  5
F0
330
3BD
100
AcDbEntity
  8
DATA
  6
Continuous
 62
     7
100
AcDbLine
 10
-1098.5
 20
-1159.4
 30
0.0
 11
-1101.5
 21
-1159.4
 31
0.0
  0
LINE
  5
F1
330
3BD
100
AcDbEntity
  8
DATA
  6
Continuous
 62
     7
100
AcDbLine
 10
-1100.0
 20
-1157.9
 30
0.0
 11
-1100.0
 21
-1160.9
 31
0.0
  0
CIRCLE
  5
F2
330
3BD
100
AcDbEntity
  8
DATA
  6
Continuous
 62
     7
100
AcDbCircle
 10
-1318.351711483705
 20
-1159.4
 30
0.0
 40
5.0
  0
CIRCLE
  5
F3
330
3BD
100
AcDbEntity
  8
DATA
  6
Continuous
 62
     7
100
AcDbCircle
 10
-1318.351711483705
 20
-1159.4
 30
0.0
 40
3.0
  0
LINE
  5
F4
330
3BD
100
AcDbEntity
  8
DATA
  6
Continuous
 62
     7
100
AcDbLine
 10
-1316.851711483705
 20
-1159.4
 30
0.0
 11
-1319.851711483705
 21
-1159.4
 31
0.0
  0
LINE
  5
F5
330
3BD
100
AcDbEntity
  8
DATA
  6
Continuous
 62
     7
100
AcDbLine
 10
-1318.351711483705
 20
-1157.9
 30
0.0
 11
-1318.351711483705
 21
-1160.9
 31
0.0
  0
CIRCLE
  5
F6
330
3BD
100
AcDbEntity
  8
DATA
  6
Continuous
 62
     7
100
AcDbCircle
 10
-881.6482885162949
 20
-1159.4
 30
0.0
 40
5.0
  0
CIRCLE
  5
F7
330
3BD
100
AcDbEntity
  8
DATA
  6
Continuous
 62
     7
100
AcDbCircle
 10
-881.6482885162949
 20
-1159.4
 30
0.0
 40
3.0
  0
LINE
  5
F8
330
3BD
100
AcDbEntity
  8
DATA
  6
Continuous
 62
     7
100
AcDbLine
 10
-883.148288516295
 20
-1159.4
 30
0.0
 11
-880.148288516295
 21
-1159.4
 31
0.0
  0
LINE
  5
F9
330
3BD
100
AcDbEntity
  8
DATA
  6
Continuous
 62
     7
100
AcDbLine
 10
-881.6482885162949
 20
-1157.9
 30
0.0
 11
-881.6482885162949
 21
-1160.9
 31
0.0
  0
CIRCLE
  5
FA
330
3BD
100
AcDbEntity
  8
DATA
  6
Continuous
 62
     7
100
AcDbCircle
 10
-1100.0
 20
-1671.6
 30
0.0
 40
5.0
  0
CIRCLE
  5
FB
330
3BD
100
AcDbEntity
  8
DATA
  6
Continuous
 62
     7
100
AcDbCircle
 10
-1100.0
 20
-1671.6
 30
0.0
 40
3.0
  0
LINE
  5
FC
330
3BD
100
AcDbEntity
  8
DATA
  6
Continuous
 62
     7
100
AcDbLine
 10
-1098.5
 20
-1671.6
 30
0.0
 11
-1101.5
 21
-1671.6
 31
0.0
  0
LINE
  5
FD
330
3BD
100
AcDbEntity
  8
DATA
  6
Continuous
 62
     7
100
AcDbLine
 10
-1100.0
 20
-1673.099999999999
 30
0.0
 11
-1100.0
 21
-1670.1
 31
0.0
  0
CIRCLE
  5
FE
330
3BD
100
AcDbEntity
  8
DATA
  6
Continuous
 62
     7
100
AcDbCircle
 10
-1318.351711483705
 20
-1671.6
 30
0.0
 40
5.0
  0
CIRCLE
  5
FF
330
3BD
100
AcDbEntity
  8
DATA
  6
Continuous
 62
     7
100
AcDbCircle
 10
-1318.351711483705
 20
-1671.6
 30
0.0
 40
3.0
  0
LINE
  5
100
330
3BD
100
AcDbEntity
  8
DATA
  6
Continuous
 62
     7
100
AcDbLine
 10
-1316.851711483705
 20
-1671.6
 30
0.0
 11
-1319.851711483705
 21
-1671.6
 31
0.0
  0
LINE
  5
101
330
3BD
100
AcDbEntity
  8
DATA
  6
Continuous
 62
     7
100
AcDbLine
 10
-1318.351711483705
 20
-1673.099999999999
 30
0.0
 11
-1318.351711483705
 21
-1670.1
 31
0.0
  0
CIRCLE
  5
102
330
3BD
100
AcDbEntity
  8
DATA
  6
Continuous
 62
     7
100
AcDbCircle
 10
-881.6482885162949
 20
-1671.6
 30
0.0
 40
5.0
  0
CIRCLE
  5
103
330
3BD
100
AcDbEntity
  8
DATA
  6
Continuous
 62
     7
100
AcDbCircle
 10
-881.6482885162949
 20
-1671.6
 30
0.0
 40
3.0
  0
LINE
  5
104
330
3BD
100
AcDbEntity
  8
DATA
  6
Continuous
 62
     7
100
AcDbLine
 10
-883.148288516295
 20
-1671.6
 30
0.0
 11
-880.148288516295
 21
-1671.6
 31
0.0
  0
LINE
  5
105
330
3BD
100
AcDbEntity
  8
DATA
  6
Continuous
 62
     7
100
AcDbLine
 10
-881.6482885162949
 20
-1673.099999999999
 30
0.0
 11
-881.6482885162949
 21
-1670.1
 31
0.0
  0
ARC
  5
106
330
3BD
100
AcDbEntity
  8
DATA
  6
Continuous
 62
     7
100
AcDbCircle
 10
-1098.86010295464
 20
-1577.925628932178
 30
0.0
 40
0.4781746722280237
100
AcDbArc
 50
307.641902497588
 51
354.2670192893806
  0
LINE
  5
107
330
3BD
100
AcDbEntity
  8
DATA
  6
Continuous
 62
     7
100
AcDbLine
 10
-1111.142600000001
 20
-1570.390369999987
 30
0.0
 11
-1108.90091
 21
-1565.049049999987
 31
0.0
  0
LINE
  5
108
330
3BD
100
AcDbEntity
  8
DATA
  6
Continuous
 62
     7
100
AcDbLine
 10
-1111.142600000001
 20
-1570.390369999987
 30
0.0
 11
-1113.35663
 21
-1565.049049999987
 31
0.0
  0
LINE
  5
109
330
3BD
100
AcDbEntity
  8
DATA
  6
Continuous
 62
     7
100
AcDbLine
 10
-1094.15
 20
-1580.049049999987
 30
0.0
 11
-1094.15
 21
-1565.049049999987
 31
0.0
  0
LINE
  5
10A
330
3BD
100
AcDbEntity
  8
DATA
  6
Continuous
 62
     7
100
AcDbLine
 10
-1091.27177
 20
-1565.049049999987
 30
0.0
 11
-1091.27177
 21
-1577.752009999987
 31
0.0
  0
LINE
  5
10B
330
3BD
100
AcDbEntity
  8
DATA
  6
Continuous
 62
     7
100
AcDbLine
 10
-1107.849245
 20
-1565.049049999987
 30
0.0
 11
-1107.849245
 21
-1577.752009999987
 31
0.0
  0
LINE
  5
10C
330
3BD
100
AcDbEntity
  8
DATA
  6
Continuous
 62
     7
100
AcDbLine
 10
-1105.081715000001
 20
-1565.049049999987
 30
0.0
 11
-1105.081715000001
 21
-1577.752009999987
 31
0.0
  0
LINE
  5
10D
330
3BD
100
AcDbEntity
  8
DATA
  6
Continuous
 62
     7
100
AcDbLine
 10
-1103.642600000001
 20
-1565.049049999987
 30
0.0
 11
-1103.642600000001
 21
-1580.049049999987
 31
0.0
  0
LINE
  5
10E
330
3BD
100
AcDbEntity
  8
DATA
  6
Continuous
 62
     7
100
AcDbLine
 10
-1101.124145
 20
-1566.460474999987
 30
0.0
 11
-1101.124145
 21
-1571.275984999987
 31
0.0
  0
LINE
  5
10F
330
3BD
100
AcDbEntity
  8
DATA
  6
Continuous
 62
     7
100
AcDbLine
 10
-1095.726275
 20
-1570.997344999987
 30
0.0
 11
-1095.726275
 21
-1567.484479999987
 31
0.0
  0
LINE
  5
110
330
3BD
100
AcDbEntity
  8
DATA
  6
Continuous
 62
     7
100
AcDbLine
 10
-1098.38432
 20
-1567.124689999987
 30
0.0
 11
-1098.38432
 21
-1570.611784999987
 31
0.0
  0
ARC
  5
111
330
3BD
100
AcDbEntity
  8
DATA
  6
Continuous
 62
     7
100
AcDbCircle
 10
-1108.404605
 20
-1576.197349999987
 30
0.0
 40
3.868280137751888
100
AcDbArc
 50
264.6908562215338
 51
323.9911991542392
  0
LINE
  5
112
330
3BD
100
AcDbEntity
  8
DATA
  6
Continuous
 62
     7
100
AcDbLine
 10
-1109.95256
 20
-1575.344239999987
 30
0.0
 11
-1109.95256
 21
-1577.751979999987
 31
0.0
  0
LINE
  5
113
330
3BD
100
AcDbEntity
  8
DATA
  6
Continuous
 62
     7
100
AcDbLine
 10
-1109.95256
 20
-1575.344239999987
 30
0.0
 11
-1112.443340000001
 21
-1575.344239999987
 31
0.0
  0
LINE
  5
114
330
3BD
100
AcDbEntity
  8
DATA
  6
Continuous
 62
     7
100
AcDbLine
 10
-1112.443340000001
 20
-1575.344239999987
 30
0.0
 11
-1112.443340000001
 21
-1577.751979999987
 31
0.0
  0
ARC
  5
115
330
3BD
100
AcDbEntity
  8
DATA
  6
Continuous
 62
     7
100
AcDbCircle
 10
-1108.895630000001
 20
-1577.784439999987
 30
0.0
 40
1.046893239363371
100
AcDbArc
 50
269.7118487927627
 51
1.775987005687227
  0
ARC
  5
116
330
3BD
100
AcDbEntity
  8
DATA
  6
Continuous
 62
     7
100
AcDbCircle
 10
-1108.906175000001
 20
-1577.784439999987
 30
0.0
 40
1.046887886188987
100
AcDbArc
 50
178.2240129943226
 51
270.2881512072897
  0
ARC
  5
117
330
3BD
100
AcDbEntity
  8
DATA
  6
Continuous
 62
     7
100
AcDbCircle
 10
-1109.12045
 20
-1576.197349999987
 30
0.0
 40
3.868273855419662
100
AcDbArc
 50
216.0088008457596
 51
275.309143778469
  0
ARC
  5
118
330
3BD
100
AcDbEntity
  8
DATA
  6
Continuous
 62
     7
100
AcDbCircle
 10
-1110.69518
 20
-1577.667184999987
 30
0.0
 40
1.750200312264771
100
AcDbArc
 50
182.7769954499999
 51
207.3596066671448
  0
CIRCLE
  5
119
330
3BD
100
AcDbEntity
  8
DATA
  6
Continuous
 62
     7
100
AcDbCircle
 10
-1110.99038
 20
-1572.466024999987
 30
0.0
 40
1.425269999999727
  0
LINE
  5
11A
330
3BD
100
AcDbEntity
  8
DATA
  6
Continuous
 62
     7
100
AcDbLine
 10
-1086.65
 20
-1580.049034999987
 30
0.0
 11
-1094.15
 21
-1580.049034999987
 31
0.0
  0
LINE
  5
11B
330
3BD
100
AcDbEntity
  8
DATA
  6
Continuous
 62
     7
100
AcDbLine
 10
-1086.65
 20
-1580.049034999987
 30
0.0
 11
-1086.65
 21
-1575.344224999987
 31
0.0
  0
LINE
  5
11C
330
3BD
100
AcDbEntity
  8
DATA
  6
Continuous
 62
     7
100
AcDbLine
 10
-1086.65
 20
-1575.344239999987
 30
0.0
 11
-1089.16844
 21
-1575.344239999987
 31
0.0
  0
LINE
  5
11D
330
3BD
100
AcDbEntity
  8
DATA
  6
Continuous
 62
     7
100
AcDbLine
 10
-1089.16844
 20
-1575.344239999987
 30
0.0
 11
-1089.16844
 21
-1577.751979999987
 31
0.0
  0
LINE
  5
11E
330
3BD
100
AcDbEntity
  8
DATA
  6
Continuous
 62
     7
100
AcDbLine
 10
-1103.642600000001
 20
-1580.049034999987
 30
0.0
 11
-1098.38432
 21
-1580.049019999987
 31
0.0
  0
LINE
  5
11F
330
3BD
100
AcDbEntity
  8
DATA
  6
Continuous
 62
     7
100
AcDbLine
 10
-1101.12416
 20
-1578.637594999987
 30
0.0
 11
-1099.768070000001
 21
-1578.637594999987
 31
0.0
  0
LINE
  5
120
330
3BD
100
AcDbEntity
  8
DATA
  6
Continuous
 62
     7
100
AcDbLine
 10
-1101.124145
 20
-1578.637594999987
 30
0.0
 11
-1101.124145
 21
-1572.715084999987
 31
0.0
  0
LINE
  5
121
330
3BD
100
AcDbEntity
  8
DATA
  6
Continuous
 62
     7
100
AcDbLine
 10
-1101.12416
 20
-1572.715084999987
 30
0.0
 11
-1099.768070000001
 21
-1572.715084999987
 31
0.0
  0
LINE
  5
122
330
3BD
100
AcDbEntity
  8
DATA
  6
Continuous
 62
     7
100
AcDbLine
 10
-1098.38432
 20
-1577.973394999987
 30
0.0
 11
-1098.38432
 21
-1573.379284999987
 31
0.0
  0
ARC
  5
123
330
3BD
100
AcDbEntity
  8
DATA
  6
Continuous
 62
     7
100
AcDbCircle
 10
-1106.829875
 20
-1577.667184999987
 30
0.0
 40
1.750197821797126
100
AcDbArc
 50
332.6403933328429
 51
357.223004549998
  0
ARC
  5
124
330
3BD
100
AcDbEntity
  8
DATA
  6
Continuous
 62
     7
100
AcDbCircle
 10
-1090.21484
 20
-1577.784439999987
 30
0.0
 40
1.046893239363371
100
AcDbArc
 50
269.7118487927627
 51
1.775987005688762
  0
ARC
  5
125
330
3BD
100
AcDbEntity
  8
DATA
  6
Continuous
 62
     7
100
AcDbCircle
 10
-1090.225370000001
 20
-1577.784439999987
 30
0.0
 40
1.046887886188987
100
AcDbArc
 50
178.2240129943226
 51
270.2881512072897
  0
LINE
  5
126
330
3BD
100
AcDbEntity
  8
DATA
  6
Continuous
 62
     7
100
AcDbLine
 10
-1095.72749
 20
-1577.641279999987
 30
0.0
 11
-1095.72749
 21
-1573.656049999987
 31
0.0
  0
LINE
  5
127
330
3BD
100
AcDbEntity
  8
DATA
  6
Continuous
 62
     7
100
AcDbLine
 10
-1101.12416
 20
-1571.275984999987
 30
0.0
 11
-1099.768070000001
 21
-1571.275984999987
 31
0.0
  0
ARC
  5
128
330
3BD
100
AcDbEntity
  8
DATA
  6
Continuous
 62
     7
100
AcDbCircle
 10
-1098.575000000001
 20
-1577.201479999987
 30
0.0
 40
2.853917117577421
100
AcDbArc
 50
273.8309816091269
 51
351.1351473097973
  0
LINE
  5
129
330
3BD
100
AcDbEntity
  8
DATA
  6
Continuous
 62
     7
100
AcDbLine
 10
-1107.849245
 20
-1565.049049999987
 30
0.0
 11
-1105.081715000001
 21
-1565.049049999987
 31
0.0
  0
LINE
  5
12A
330
3BD
100
AcDbEntity
  8
DATA
  6
Continuous
 62
     7
100
AcDbLine
 10
-1113.35663
 20
-1565.049049999987
 30
0.0
 11
-1108.90091
 21
-1565.049049999987
 31
0.0
  0
LINE
  5
12B
330
3BD
100
AcDbEntity
  8
DATA
  6
Continuous
 62
     7
100
AcDbLine
 10
-1094.15
 20
-1565.049049999987
 30
0.0
 11
-1091.27177
 21
-1565.049049999987
 31
0.0
  0
LINE
  5
12C
330
3BD
100
AcDbEntity
  8
DATA
  6
Continuous
 62
     7
100
AcDbLine
 10
-1103.642600000001
 20
-1565.049049999987
 30
0.0
 11
-1098.355414807781
 21
-1565.049062140598
 31
0.0
  0
LINE
  5
12D
330
3BD
100
AcDbEntity
  8
DATA
  6
Continuous
 62
     7
100
AcDbLine
 10
-1101.12416
 20
-1566.460489999987
 30
0.0
 11
-1099.768070000001
 21
-1566.460489999987
 31
0.0
  0
ARC
  5
12E
330
3BD
100
AcDbEntity
  8
DATA
  6
Continuous
 62
     7
100
AcDbCircle
 10
-1098.546545
 20
-1567.892239999987
 30
0.0
 40
2.849594899366546
100
AcDbArc
 50
8.226923859019004
 51
86.1541266921705
  0
ARC
  5
12F
330
3BD
100
AcDbEntity
  8
DATA
  6
Continuous
 62
     7
100
AcDbCircle
 10
-1099.752056806095
 20
-1576.007063059107
 30
0.0
 40
2.630580680072415
100
AcDbArc
 50
269.6512199376015
 51
282.8264828068661
  0
ARC
  5
130
330
3BD
100
AcDbEntity
  8
DATA
  6
Continuous
 62
     7
100
AcDbCircle
 10
-1099.456600958801
 20
-1577.119220466828
 30
0.0
 40
1.481156855539759
100
AcDbArc
 50
281.2331036226615
 51
306.8620088940701
  0
ARC
  5
131
330
3BD
100
AcDbEntity
  8
DATA
  6
Continuous
 62
     7
100
AcDbCircle
 10
-1098.86010295464
 20
-1573.427051067795
 30
0.0
 40
0.4781746722281013
100
AcDbArc
 50
5.732980710565161
 51
52.35809750237875
  0
ARC
  5
132
330
3BD
100
AcDbEntity
  8
DATA
  6
Continuous
 62
     7
100
AcDbCircle
 10
-1099.752056806095
 20
-1575.345616940867
 30
0.0
 40
2.630580680072812
100
AcDbArc
 50
77.17351719313606
 51
90.34878006239843
  0
ARC
  5
133
330
3BD
100
AcDbEntity
  8
DATA
  6
Continuous
 62
     7
100
AcDbCircle
 10
-1099.456600958801
 20
-1574.233459533146
 30
0.0
 40
1.481156855539906
100
AcDbArc
 50
53.13799110591936
 51
78.76689637733853
  0
ARC
  5
134
330
3BD
100
AcDbEntity
  8
DATA
  6
Continuous
 62
     7
100
AcDbCircle
 10
-1097.17901
 20
-1573.754164999987
 30
0.0
 40
1.454832245871148
100
AcDbArc
 50
3.867006359811912
 51
88.36163456789938
  0
ARC
  5
135
330
3BD
100
AcDbEntity
  8
DATA
  6
Continuous
 62
     7
100
AcDbCircle
 10
-1097.180345
 20
-1570.844284999987
 30
0.0
 40
1.45627790992095
100
AcDbArc
 50
271.6892821046696
 51
356.0782829826688
  0
ARC
  5
136
330
3BD
100
AcDbEntity
  8
DATA
  6
Continuous
 62
     7
100
AcDbCircle
 10
-1098.86010295464
 20
-1570.564018932179
 30
0.0
 40
0.4781746722280237
100
AcDbArc
 50
307.641902497588
 51
354.2670192894349
  0
ARC
  5
137
330
3BD
100
AcDbEntity
  8
DATA
  6
Continuous
 62
     7
100
AcDbCircle
 10
-1099.752056806095
 20
-1568.645453059106
 30
0.0
 40
2.630580680072415
100
AcDbArc
 50
269.6512199376015
 51
282.8264828068661
  0
ARC
  5
138
330
3BD
100
AcDbEntity
  8
DATA
  6
Continuous
 62
     7
100
AcDbCircle
 10
-1099.456600958801
 20
-1569.757610466827
 30
0.0
 40
1.481156855539759
100
AcDbArc
 50
281.2331036226615
 51
306.8620088940701
  0
ARC
  5
139
330
3BD
100
AcDbEntity
  8
DATA
  6
Continuous
 62
     7
100
AcDbCircle
 10
-1098.86010295464
 20
-1567.172456067796
 30
0.0
 40
0.4781746722281013
100
AcDbArc
 50
5.732980710565161
 51
52.35809750241202
  0
ARC
  5
13A
330
3BD
100
AcDbEntity
  8
DATA
  6
Continuous
 62
     7
100
AcDbCircle
 10
-1099.752056806095
 20
-1569.091021940868
 30
0.0
 40
2.630580680072368
100
AcDbArc
 50
77.17351719313388
 51
90.3487800623985
  0
ARC
  5
13B
330
3BD
100
AcDbEntity
  8
DATA
  6
Continuous
 62
     7
100
AcDbCircle
 10
-1099.456600958801
 20
-1567.978864533146
 30
0.0
 40
1.48115685554027
100
AcDbArc
 50
53.13799110592992
 51
78.76689637733853
  0
LWPOLYLINE
  5
13C
330
3BD
100
AcDbEntity
  8
DATA
  6
Continuous
 62
     7
100
AcDbPolyline
 90
        4
 70
     1
 43
0.0
 10
-1116.0
 20
-1557.549023901653
 10
-1084.0
 20
-1557.549023901653
 10
-1084.0
 20
-1589.549023901653
 10
-1116.0
 20
-1589.549023901653
  0
LINE
  5
143
330
3BD
100
AcDbEntity
  8
DATA
  6
Continuous
 62
     7
100
AcDbLine
 10
-1377.156
 20
-1704.8
 30
0.0
 11
-1377.156
 21
-1700.0
 31
0.0
  0
LINE
  5
144
330
3BD
100
AcDbEntity
  8
DATA
  6
Continuous
 62
     7
100
AcDbLine
 10
-1414.156
 20
-1704.8
 30
0.0
 11
-1414.156
 21
-1700.0
 31
0.0
  0
LINE
  5
145
330
3BD
100
AcDbEntity
  8
DATA
  6
Continuous
 62
     7
100
AcDbLine
 10
-1379.156
 20
-1706.8
 30
0.0
 11
-1412.156
 21
-1706.8
 31
0.0
  0
ARC
  5
146
330
3BD
100
AcDbEntity
  8
DATA
  6
Continuous
 62
     7
100
AcDbCircle
 10
-1379.156
 20
-1704.8
 30
0.0
 40
2.0
100
AcDbArc
 50
270.0
 51
0.0
  0
ARC
  5
147
330
3BD
100
AcDbEntity
  8
DATA
  6
Continuous
 62
     7
100
AcDbCircle
 10
-1412.156
 20
-1704.8
 30
0.0
 40
2.0
100
AcDbArc
 50
180.0
 51
270.0
  0
LINE
  5
148
330
3BD
100
AcDbEntity
  8
DATA
  6
Continuous
 62
     7
100
AcDbLine
 10
-1414.156
 20
-1704.8
 30
0.0
 11
-1377.156
 21
-1704.8
 31
0.0
  0
LINE
  5
149
330
3BD
100
AcDbEntity
  8
DATA
  6
Continuous
 62
     7
100
AcDbLine
 10
-822.8440000000002
 20
-1704.8
 30
0.0
 11
-822.8440000000002
 21
-1700.0
 31
0.0
  0
LINE
  5
14A
330
3BD
100
AcDbEntity
  8
DATA
  6
Continuous
 62
     7
100
AcDbLine
 10
-785.8440000000001
 20
-1704.8
 30
0.0
 11
-785.8440000000001
 21
-1700.0
 31
0.0
  0
LINE
  5
14B
330
3BD
100
AcDbEntity
  8
DATA
  6
Continuous
 62
     7
100
AcDbLine
 10
-820.8440000000001
 20
-1706.8
 30
0.0
 11
-787.8440000000002
 21
-1706.8
 31
0.0
  0
ARC
  5
14C
330
3BD
100
AcDbEntity
  8
DATA
  6
Continuous
 62
     7
100
AcDbCircle
 10
-820.8440000000001
 20
-1704.8
 30
0.0
 40
2.0
100
AcDbArc
 50
180.0
 51
270.0
  0
ARC
  5
14D
330
3BD
100
AcDbEntity
  8
DATA
  6
Continuous
 62
     7
100
AcDbCircle
 10
-787.8440000000002
 20
-1704.8
 30
0.0
 40
2.0
100
AcDbArc
 50
270.0
 51
0.0
  0
LINE
  5
14E
330
3BD
100
AcDbEntity
  8
DATA
  6
Continuous
 62
     7
100
AcDbLine
 10
-785.8440000000001
 20
-1704.8
 30
0.0
 11
-822.8440000000002
 21
-1704.8
 31
0.0
  0
LINE
  5
14F
330
3BD
100
AcDbEntity
  8
DATA
  6
Continuous
 62
     7
100
AcDbLine
 10
-59.04828851629464
 20
-1131.0
 30
0.0
 11
-706.9517114837047
 21
-1131.0
 31
0.0
  0
LINE
  5
150
330
3BD
100
AcDbEntity
  8
DATA
  6
Continuous
 62
     7
100
AcDbLine
 10
-59.04828851629464
 20
-1700.0
 30
0.0
 11
-706.9517114837047
 21
-1700.0
 31
0.0
  0
LINE
  5
151
330
3BD
100
AcDbEntity
  8
DATA
  6
Continuous
 62
     7
100
AcDbLine
 10
-41.0
 20
-1149.0
 30
0.0
 11
-725.0
 21
-1149.0
 31
0.0
  0
LINE
  5
152
330
3BD
100
AcDbEntity
  8
DATA
  6
Continuous
 62
     7
100
AcDbLine
 10
-725.0
 20
-1149.0
 30
0.0
 11
-725.0
 21
-1146.5
 31
0.0
  0
ARC
  5
153
330
3BD
100
AcDbEntity
  8
DATA
  6
Continuous
 62
     7
100
AcDbCircle
 10
-706.8453857089122
 20
-1149.381571447993
 30
0.0
 40
18.38187895912876
100
AcDbArc
 50
90.33141618079735
 51
170.9810265399228
  0
LINE
  5
154
330
3BD
100
AcDbEntity
  8
DATA
  6
Continuous
 62
     7
100
AcDbLine
 10
-41.0
 20
-1681.650000000064
 30
0.0
 11
-725.0
 21
-1682.0
 31
0.0
  0
LINE
  5
155
330
3BD
100
AcDbEntity
  8
DATA
  6
Continuous
 62
     7
100
AcDbLine
 10
-658.3999999999996
 20
-1150.0
 30
0.0
 11
-724.0
 21
-1150.0
 31
0.0
  0
LINE
  5
156
330
3BD
100
AcDbEntity
  8
DATA
  6
Continuous
 62
     7
100
AcDbLine
 10
-724.0
 20
-1681.0
 30
0.0
 11
-724.0
 21
-1150.0
 31
0.0
  0
LINE
  5
157
330
3BD
100
AcDbEntity
  8
DATA
  6
Continuous
 62
     7
100
AcDbLine
 10
-722.1999999999998
 20
-1150.0
 30
0.0
 11
-722.1999999999998
 21
-1149.0
 31
0.0
  0
LINE
  5
158
330
3BD
100
AcDbEntity
  8
DATA
  6
Continuous
 62
     7
100
AcDbLine
 10
-683.5999999999998
 20
-1149.0
 30
0.0
 11
-683.5999999999998
 21
-1146.5
 31
0.0
  0
ARC
  5
159
330
3BD
100
AcDbEntity
  8
DATA
  6
Continuous
 62
     7
100
AcDbCircle
 10
-667.0117940199333
 20
-1146.823754152824
 30
0.0
 40
16.59136505500917
100
AcDbArc
 50
107.4966915301628
 51
178.8818928457761
  0
LINE
  5
15A
330
3BD
100
AcDbEntity
  8
DATA
  6
Continuous
 62
     7
100
AcDbLine
 10
-645.5999999999997
 20
-1668.8
 30
0.0
 11
-645.5999999999997
 21
-1162.1
 31
0.0
  0
ARC
  5
15B
330
3BD
100
AcDbEntity
  8
DATA
  6
Continuous
 62
     7
100
AcDbCircle
 10
-659.545089776474
 20
-1164.016159765481
 30
0.0
 40
14.06285764585836
100
AcDbArc
 50
7.420237306910818
 51
85.3294322542295
  0
ARC
  5
15C
330
3BD
100
AcDbEntity
  8
DATA
  6
Continuous
 62
     7
100
AcDbCircle
 10
-685.0
 20
-1188.8
 30
0.0
 40
7.481310045707346
100
AcDbArc
 50
8.455027677178383
 51
52.05784664988097
  0
ARC
  5
15D
330
3BD
100
AcDbEntity
  8
DATA
  6
Continuous
 62
     7
100
AcDbCircle
 10
-688.3999999999997
 20
-1266.366176470588
 30
0.0
 40
83.84868880679837
100
AcDbArc
 50
84.52508405952963
 51
107.2753147750204
  0
ARC
  5
15E
330
3BD
100
AcDbEntity
  8
DATA
  6
Continuous
 62
     7
100
AcDbCircle
 10
-707.6621308016883
 20
-1197.558544303797
 30
0.0
 40
12.59128225947706
100
AcDbArc
 50
116.6000414205657
 51
174.7206551685065
  0
ARC
  5
15F
330
3BD
100
AcDbEntity
  8
DATA
  6
Continuous
 62
     7
100
AcDbCircle
 10
-658.6699279093696
 20
-1260.12708547889
 30
0.0
 40
74.8600717360262
100
AcDbArc
 50
104.6475719919078
 51
126.6921829418269
  0
ARC
  5
160
330
3BD
100
AcDbEntity
  8
DATA
  6
Continuous
 62
     7
100
AcDbCircle
 10
-700.674999999997
 20
-1204.025000000001
 30
0.0
 40
4.778205730190436
100
AcDbArc
 50
124.7709917126574
 51
182.0989059331853
  0
LINE
  5
161
330
3BD
100
AcDbEntity
  8
DATA
  6
Continuous
 62
     7
100
AcDbLine
 10
-720.1999999999998
 20
-1196.4
 30
0.0
 11
-720.1999999999998
 21
-1634.6
 31
0.0
  0
LINE
  5
162
330
3BD
100
AcDbEntity
  8
DATA
  6
Continuous
 62
     7
100
AcDbLine
 10
-705.4499999999998
 20
-1204.199999999999
 30
0.0
 11
-705.4499999999998
 21
-1626.8
 31
0.0
  0
LINE
  5
163
330
3BD
100
AcDbEntity
  8
DATA
  6
Continuous
 62
     7
100
AcDbLine
 10
-677.5999999999998
 20
-1187.699999999999
 30
0.0
 11
-677.5999999999998
 21
-1643.3
 31
0.0
  0
LINE
  5
164
330
3BD
100
AcDbEntity
  8
DATA
  6
Continuous
 62
     7
100
AcDbLine
 10
-703.3999999999998
 20
-1200.1
 30
0.0
 11
-713.2999999999997
 21
-1186.3
 31
0.0
  0
LINE
  5
165
330
3BD
100
AcDbEntity
  8
DATA
  6
Continuous
 62
     7
100
AcDbLine
 10
-705.4499999999998
 20
-1204.199999999999
 30
0.0
 11
-720.1999999999998
 21
-1203.0
 31
0.0
  0
LINE
  5
166
330
3BD
100
AcDbEntity
  8
DATA
  6
Continuous
 62
     7
100
AcDbLine
 10
-680.4000000000002
 20
-1182.9
 30
0.0
 11
-680.4000000000002
 21
-1150.0
 31
0.0
  0
LINE
  5
167
330
3BD
100
AcDbEntity
  8
DATA
  6
Continuous
 62
     7
100
AcDbLine
 10
-725.0
 20
-1682.0
 30
0.0
 11
-725.0
 21
-1684.5
 31
0.0
  0
ARC
  5
168
330
3BD
100
AcDbEntity
  8
DATA
  6
Continuous
 62
     7
100
AcDbCircle
 10
-706.8453857089122
 20
-1681.618428552007
 30
0.0
 40
18.38187895912881
100
AcDbArc
 50
189.0189734600771
 51
269.6685838192026
  0
LINE
  5
169
330
3BD
100
AcDbEntity
  8
DATA
  6
Continuous
 62
     7
100
AcDbLine
 10
-658.3999999999996
 20
-1681.0
 30
0.0
 11
-724.0
 21
-1681.0
 31
0.0
  0
LINE
  5
16A
330
3BD
100
AcDbEntity
  8
DATA
  6
Continuous
 62
     7
100
AcDbLine
 10
-722.1999999999998
 20
-1681.0
 30
0.0
 11
-722.1999999999998
 21
-1682.0
 31
0.0
  0
LINE
  5
16B
330
3BD
100
AcDbEntity
  8
DATA
  6
Continuous
 62
     7
100
AcDbLine
 10
-683.5999999999998
 20
-1682.0
 30
0.0
 11
-683.5999999999998
 21
-1684.5
 31
0.0
  0
ARC
  5
16C
330
3BD
100
AcDbEntity
  8
DATA
  6
Continuous
 62
     7
100
AcDbCircle
 10
-667.0117940199333
 20
-1684.176245847176
 30
0.0
 40
16.59136505500933
100
AcDbArc
 50
181.1181071542238
 51
252.5033084698371
  0
ARC
  5
16D
330
3BD
100
AcDbEntity
  8
DATA
  6
Continuous
 62
     7
100
AcDbCircle
 10
-659.545089776474
 20
-1666.983840234518
 30
0.0
 40
14.06285764585873
100
AcDbArc
 50
274.6705677457704
 51
352.5797626930892
  0
ARC
  5
16E
330
3BD
100
AcDbEntity
  8
DATA
  6
Continuous
 62
     7
100
AcDbCircle
 10
-685.0
 20
-1642.2
 30
0.0
 40
7.481310045707071
100
AcDbArc
 50
307.942153350119
 51
351.5449723228217
  0
ARC
  5
16F
330
3BD
100
AcDbEntity
  8
DATA
  6
Continuous
 62
     7
100
AcDbCircle
 10
-688.3999999999997
 20
-1564.633823529412
 30
0.0
 40
83.84868880679858
100
AcDbArc
 50
252.7246852249796
 51
275.4749159404704
  0
ARC
  5
170
330
3BD
100
AcDbEntity
  8
DATA
  6
Continuous
 62
     7
100
AcDbCircle
 10
-707.6621308016883
 20
-1633.441455696203
 30
0.0
 40
12.59128225947725
100
AcDbArc
 50
185.2793448314934
 51
243.3999585794343
  0
ARC
  5
171
330
3BD
100
AcDbEntity
  8
DATA
  6
Continuous
 62
     7
100
AcDbCircle
 10
-658.6699279093696
 20
-1570.872914521109
 30
0.0
 40
74.8600717360262
100
AcDbArc
 50
233.3078170581731
 51
255.3524280080921
  0
ARC
  5
172
330
3BD
100
AcDbEntity
  8
DATA
  6
Continuous
 62
     7
100
AcDbCircle
 10
-700.674999999997
 20
-1626.974999999999
 30
0.0
 40
4.778205730190615
100
AcDbArc
 50
177.9010940668146
 51
235.2290082873425
  0
LINE
  5
173
330
3BD
100
AcDbEntity
  8
DATA
  6
Continuous
 62
     7
100
AcDbLine
 10
-703.3999999999998
 20
-1630.9
 30
0.0
 11
-713.2999999999997
 21
-1644.7
 31
0.0
  0
LINE
  5
174
330
3BD
100
AcDbEntity
  8
DATA
  6
Continuous
 62
     7
100
AcDbLine
 10
-705.4499999999998
 20
-1626.8
 30
0.0
 11
-720.1999999999998
 21
-1628.0
 31
0.0
  0
LINE
  5
175
330
3BD
100
AcDbEntity
  8
DATA
  6
Continuous
 62
     7
100
AcDbLine
 10
-680.4000000000002
 20
-1648.1
 30
0.0
 11
-680.4000000000002
 21
-1681.0
 31
0.0
  0
CIRCLE
  5
176
330
3BD
100
AcDbEntity
  8
DATA
  6
Continuous
 62
     7
100
AcDbCircle
 10
-652.5
 20
-1168.6
 30
0.0
 40
5.0
  0
CIRCLE
  5
177
330
3BD
100
AcDbEntity
  8
DATA
  6
Continuous
 62
     7
100
AcDbCircle
 10
-652.5
 20
-1168.6
 30
0.0
 40
3.0
  0
LINE
  5
178
330
3BD
100
AcDbEntity
  8
DATA
  6
Continuous
 62
     7
100
AcDbLine
 10
-654.0
 20
-1168.6
 30
0.0
 11
-651.0
 21
-1168.6
 31
0.0
  0
LINE
  5
179
330
3BD
100
AcDbEntity
  8
DATA
  6
Continuous
 62
     7
100
AcDbLine
 10
-652.5
 20
-1167.1
 30
0.0
 11
-652.5
 21
-1170.1
 31
0.0
  0
CIRCLE
  5
17A
330
3BD
100
AcDbEntity
  8
DATA
  6
Continuous
 62
     7
100
AcDbCircle
 10
-652.5
 20
-1291.6
 30
0.0
 40
5.0
  0
CIRCLE
  5
17B
330
3BD
100
AcDbEntity
  8
DATA
  6
Continuous
 62
     7
100
AcDbCircle
 10
-652.5
 20
-1291.6
 30
0.0
 40
3.0
  0
LINE
  5
17C
330
3BD
100
AcDbEntity
  8
DATA
  6
Continuous
 62
     7
100
AcDbLine
 10
-654.0
 20
-1291.6
 30
0.0
 11
-651.0
 21
-1291.6
 31
0.0
  0
LINE
  5
17D
330
3BD
100
AcDbEntity
  8
DATA
  6
Continuous
 62
     7
100
AcDbLine
 10
-652.5
 20
-1290.1
 30
0.0
 11
-652.5
 21
-1293.1
 31
0.0
  0
CIRCLE
  5
17E
330
3BD
100
AcDbEntity
  8
DATA
  6
Continuous
 62
     7
100
AcDbCircle
 10
-652.5
 20
-1414.1
 30
0.0
 40
5.0
  0
CIRCLE
  5
17F
330
3BD
100
AcDbEntity
  8
DATA
  6
Continuous
 62
     7
100
AcDbCircle
 10
-652.5
 20
-1414.1
 30
0.0
 40
3.0
  0
LINE
  5
180
330
3BD
100
AcDbEntity
  8
DATA
  6
Continuous
 62
     7
100
AcDbLine
 10
-654.0
 20
-1414.1
 30
0.0
 11
-651.0
 21
-1414.1
 31
0.0
  0
LINE
  5
181
330
3BD
100
AcDbEntity
  8
DATA
  6
Continuous
 62
     7
100
AcDbLine
 10
-652.5
 20
-1412.6
 30
0.0
 11
-652.5
 21
-1415.6
 31
0.0
  0
CIRCLE
  5
182
330
3BD
100
AcDbEntity
  8
DATA
  6
Continuous
 62
     7
100
AcDbCircle
 10
-652.5
 20
-1662.4
 30
0.0
 40
5.0
  0
CIRCLE
  5
183
330
3BD
100
AcDbEntity
  8
DATA
  6
Continuous
 62
     7
100
AcDbCircle
 10
-652.5
 20
-1662.4
 30
0.0
 40
3.0
  0
LINE
  5
184
330
3BD
100
AcDbEntity
  8
DATA
  6
Continuous
 62
     7
100
AcDbLine
 10
-654.0
 20
-1662.4
 30
0.0
 11
-651.0
 21
-1662.4
 31
0.0
  0
LINE
  5
185
330
3BD
100
AcDbEntity
  8
DATA
  6
Continuous
 62
     7
100
AcDbLine
 10
-652.5
 20
-1663.9
 30
0.0
 11
-652.5
 21
-1660.9
 31
0.0
  0
CIRCLE
  5
186
330
3BD
100
AcDbEntity
  8
DATA
  6
Continuous
 62
     7
100
AcDbCircle
 10
-652.5
 20
-1539.4
 30
0.0
 40
5.0
  0
CIRCLE
  5
187
330
3BD
100
AcDbEntity
  8
DATA
  6
Continuous
 62
     7
100
AcDbCircle
 10
-652.5
 20
-1539.4
 30
0.0
 40
3.0
  0
LINE
  5
188
330
3BD
100
AcDbEntity
  8
DATA
  6
Continuous
 62
     7
100
AcDbLine
 10
-654.0
 20
-1539.4
 30
0.0
 11
-651.0
 21
-1539.4
 31
0.0
  0
LINE
  5
189
330
3BD
100
AcDbEntity
  8
DATA
  6
Continuous
 62
     7
100
AcDbLine
 10
-652.5
 20
-1540.9
 30
0.0
 11
-652.5
 21
-1537.9
 31
0.0
  0
LINE
  5
18A
330
3BD
100
AcDbEntity
  8
DATA
  6
Continuous
 62
     7
100
AcDbLine
 10
-41.0
 20
-1684.5
 30
0.0
 11
-41.0
 21
-1146.5
 31
0.0
  0
ARC
  5
18B
330
3BD
100
AcDbEntity
  8
DATA
  6
Continuous
 62
     7
100
AcDbCircle
 10
-59.15461429108837
 20
-1149.381571447993
 30
0.0
 40
18.38187895912926
100
AcDbArc
 50
9.018973460076994
 51
89.6685838191998
  0
LINE
  5
18C
330
3BD
100
AcDbEntity
  8
DATA
  6
Continuous
 62
     7
100
AcDbLine
 10
-59.15461429108837
 20
-1130.999692488865
 30
0.0
 11
-59.04828851629464
 21
-1700.0
 31
0.0
  0
ARC
  5
18D
330
3BD
100
AcDbEntity
  8
DATA
  6
Continuous
 62
     7
100
AcDbCircle
 10
-59.15461429108837
 20
-1681.618428552007
 30
0.0
 40
18.38187895912877
100
AcDbArc
 50
270.3314161808001
 51
350.981026539923
  0
ARC
  5
18E
330
3BD
100
AcDbEntity
  8
DATA
  6
Continuous
 62
     7
100
AcDbCircle
 10
-541.0
 20
-1955.430559851313
 30
0.0
 40
668.4305598513138
100
AcDbArc
 50
84.75385589582201
 51
95.24614410417802
  0
ARC
  5
18F
330
3BD
100
AcDbEntity
  8
DATA
  6
Continuous
 62
     7
100
AcDbCircle
 10
-482.2608964523905
 20
-1311.186006474061
 30
0.0
 40
21.51787423419305
100
AcDbArc
 50
11.21763365060389
 51
83.65357280415649
  0
LINE
  5
190
330
3BD
100
AcDbEntity
  8
DATA
  6
Continuous
 62
     7
100
AcDbLine
 10
-461.1541140979516
 20
-1306.999999999999
 30
0.0
 11
-454.3823173282262
 21
-1423.299999999999
 31
0.0
  0
ARC
  5
191
330
3BD
100
AcDbEntity
  8
DATA
  6
Continuous
 62
     7
100
AcDbCircle
 10
-1524.908179397191
 20
-1410.687931034482
 30
0.0
 40
1070.600152083909
100
AcDbArc
 50
354.4193690154744
 51
359.3250187419533
  0
ARC
  5
192
330
3BD
100
AcDbEntity
  8
DATA
  6
Continuous
 62
     7
100
AcDbCircle
 10
-541.0
 20
-593.6354479409169
 30
0.0
 40
940.964552059083
100
AcDbArc
 50
266.2636895878152
 51
273.7363104121848
  0
ARC
  5
193
330
3BD
100
AcDbEntity
  8
DATA
  6
Continuous
 62
     7
100
AcDbCircle
 10
-477.7992151197012
 20
-1514.272021058038
 30
0.0
 40
18.42446433481197
100
AcDbArc
 50
264.1337483617066
 51
358.3578840435383
  0
LINE
  5
194
330
3BD
100
AcDbEntity
  8
DATA
  6
Continuous
 62
     7
100
AcDbLine
 10
-493.1176826717737
 20
-1306.799999999999
 30
0.0
 11
-495.4469509644568
 21
-1325.9
 31
0.0
  0
ARC
  5
195
330
3BD
100
AcDbEntity
  8
DATA
  6
Continuous
 62
     7
100
AcDbCircle
 10
-541.0
 20
-1479.912793286229
 30
0.0
 40
179.612793286229
100
AcDbArc
 50
74.53876524041849
 51
105.4612347595815
  0
ARC
  5
196
330
3BD
100
AcDbEntity
  8
DATA
  6
Continuous
 62
     7
100
AcDbCircle
 10
-494.5788678998324
 20
-1320.92610296074
 30
0.0
 40
14.20147341398555
100
AcDbArc
 50
358.4913397795551
 51
84.09440373352442
  0
LINE
  5
197
330
3BD
100
AcDbEntity
  8
DATA
  6
Continuous
 62
     7
100
AcDbLine
 10
-482.8823173282262
 20
-1411.299999999999
 30
0.0
 11
-455.0810409846034
 21
-1411.299999999999
 31
0.0
  0
LINE
  5
198
330
3BD
100
AcDbEntity
  8
DATA
  6
Continuous
 62
     7
100
AcDbLine
 10
-586.5530490355432
 20
-1325.9
 30
0.0
 11
-495.4469509644568
 21
-1325.9
 31
0.0
  0
ARC
  5
199
330
3BD
100
AcDbEntity
  8
DATA
  6
Continuous
 62
     7
100
AcDbCircle
 10
-1202.247206022281
 20
-1413.815642703273
 30
0.0
 40
727.7692365537855
100
AcDbArc
 50
0.1980517854490347
 51
7.303328011888398
  0
LINE
  5
19A
330
3BD
100
AcDbEntity
  8
DATA
  6
Continuous
 62
     7
100
AcDbLine
 10
-480.3823173282262
 20
-1321.299999999999
 30
0.0
 11
-486.4823173282266
 21
-1339.999999999999
 31
0.0
  0
ARC
  5
19B
330
3BD
100
AcDbEntity
  8
DATA
  6
Continuous
 62
     7
100
AcDbCircle
 10
-498.4055387325279
 20
-1337.680849896262
 30
0.0
 40
12.14667303666538
100
AcDbArc
 50
348.9930052337064
 51
75.90254908841995
  0
LINE
  5
19C
330
3BD
100
AcDbEntity
  8
DATA
  6
Continuous
 62
     7
100
AcDbLine
 10
-486.4823173282266
 20
-1339.999999999999
 30
0.0
 11
-482.8823173282262
 21
-1411.299999999999
 31
0.0
  0
ARC
  5
19D
330
3BD
100
AcDbEntity
  8
DATA
  6
Continuous
 62
     7
100
AcDbCircle
 10
-500.7786080121113
 20
-1411.898649360917
 30
0.0
 40
26.30310409036667
100
AcDbArc
 50
269.338418437693
 51
1.304144317360908
  0
ARC
  5
19E
330
3BD
100
AcDbEntity
  8
DATA
  6
Continuous
 62
     7
100
AcDbCircle
 10
-500.0353669385212
 20
-1413.176413460347
 30
0.0
 40
17.25537708679238
100
AcDbArc
 50
266.5215072391695
 51
6.242900154224798
  0
LINE
  5
19F
330
3BD
100
AcDbEntity
  8
DATA
  6
Continuous
 62
     7
100
AcDbLine
 10
-495.4469509644568
 20
-1325.9
 30
0.0
 11
-492.2983767835275
 21
-1428.6
 31
0.0
  0
CIRCLE
  5
1A0
330
3BD
100
AcDbEntity
  8
DATA
  6
Continuous
 62
     7
100
AcDbCircle
 10
-464.8823173282262
 20
-1422.2
 30
0.0
 40
2.600000000000363
  0
CIRCLE
  5
1A1
330
3BD
100
AcDbEntity
  8
DATA
  6
Continuous
 62
     7
100
AcDbCircle
 10
-464.8823173282262
 20
-1422.2
 30
0.0
 40
5.400000000000545
  0
CIRCLE
  5
1A2
330
3BD
100
AcDbEntity
  8
DATA
  6
Continuous
 62
     7
100
AcDbCircle
 10
-464.8823173282262
 20
-1467.999999999999
 30
0.0
 40
2.600000000000363
  0
CIRCLE
  5
1A3
330
3BD
100
AcDbEntity
  8
DATA
  6
Continuous
 62
     7
100
AcDbCircle
 10
-464.8823173282262
 20
-1467.999999999999
 30
0.0
 40
5.400000000000545
  0
LINE
  5
1A4
330
3BD
100
AcDbEntity
  8
DATA
  6
Continuous
 62
     7
100
AcDbLine
 10
-501.0823173282268
 20
-1430.4
 30
0.0
 11
-501.0823173282268
 21
-1460.6
 31
0.0
  0
LINE
  5
1A5
330
3BD
100
AcDbEntity
  8
DATA
  6
Continuous
 62
     7
100
AcDbLine
 10
-501.0823173282268
 20
-1430.4
 30
0.0
 11
-580.917682671773
 21
-1430.4
 31
0.0
  0
LINE
  5
1A6
330
3BD
100
AcDbEntity
  8
DATA
  6
Continuous
 62
     7
100
AcDbLine
 10
-501.0823173282268
 20
-1438.199999999999
 30
0.0
 11
-580.917682671773
 21
-1438.199999999999
 31
0.0
  0
LINE
  5
1A7
330
3BD
100
AcDbEntity
  8
DATA
  6
Continuous
 62
     7
100
AcDbLine
 10
-501.0823173282268
 20
-1451.999999999999
 30
0.0
 11
-580.917682671773
 21
-1451.999999999999
 31
0.0
  0
LINE
  5
1A8
330
3BD
100
AcDbEntity
  8
DATA
  6
Continuous
 62
     7
100
AcDbLine
 10
-501.0823173282268
 20
-1460.6
 30
0.0
 11
-551.0823173282269
 21
-1460.6
 31
0.0
  0
LINE
  5
1A9
330
3BD
100
AcDbEntity
  8
DATA
  6
Continuous
 62
     7
100
AcDbLine
 10
-482.8823173282262
 20
-1479.7
 30
0.0
 11
-456.534639861884
 21
-1479.7
 31
0.0
  0
ARC
  5
1AA
330
3BD
100
AcDbEntity
  8
DATA
  6
Continuous
 62
     7
100
AcDbCircle
 10
-500.0353669385212
 20
-1477.823586539652
 30
0.0
 40
17.25537708679292
100
AcDbArc
 50
353.7570998457752
 51
93.47849276083051
  0
CIRCLE
  5
1AB
330
3BD
100
AcDbEntity
  8
DATA
  6
Continuous
 62
     7
100
AcDbCircle
 10
-472.6823173282264
 20
-1519.799999999999
 30
0.0
 40
2.600000000000363
  0
CIRCLE
  5
1AC
330
3BD
100
AcDbEntity
  8
DATA
  6
Continuous
 62
     7
100
AcDbCircle
 10
-472.6823173282264
 20
-1519.799999999999
 30
0.0
 40
5.400000000000545
  0
CIRCLE
  5
1AD
330
3BD
100
AcDbEntity
  8
DATA
  6
Continuous
 62
     7
100
AcDbCircle
 10
-476.2823173282267
 20
-1305.199999999999
 30
0.0
 40
2.600000000000363
  0
CIRCLE
  5
1AE
330
3BD
100
AcDbEntity
  8
DATA
  6
Continuous
 62
     7
100
AcDbCircle
 10
-476.2823173282267
 20
-1305.199999999999
 30
0.0
 40
5.400000000000545
  0
LINE
  5
1AF
330
3BD
100
AcDbEntity
  8
DATA
  6
Continuous
 62
     7
100
AcDbLine
 10
-588.1176826717737
 20
-1520.799999999999
 30
0.0
 11
-493.8823173282262
 21
-1520.799999999999
 31
0.0
  0
LINE
  5
1B0
330
3BD
100
AcDbEntity
  8
DATA
  6
Continuous
 62
     7
100
AcDbLine
 10
-588.1176826717737
 20
-1512.0
 30
0.0
 11
-493.8823173282262
 21
-1512.0
 31
0.0
  0
LINE
  5
1B1
330
3BD
100
AcDbEntity
  8
DATA
  6
Continuous
 62
     7
100
AcDbLine
 10
-493.8823173282262
 20
-1520.799999999999
 30
0.0
 11
-493.8823173282262
 21
-1512.0
 31
0.0
  0
ARC
  5
1B2
330
3BD
100
AcDbEntity
  8
DATA
  6
Continuous
 62
     7
100
AcDbCircle
 10
-492.8669299146232
 20
-1505.448854128772
 30
0.0
 40
15.38469015480662
100
AcDbArc
 50
266.2157357466497
 51
0.1819432219060104
  0
LINE
  5
1B3
330
3BD
100
AcDbEntity
  8
DATA
  6
Continuous
 62
     7
100
AcDbLine
 10
-477.4823173282266
 20
-1505.4
 30
0.0
 11
-475.8823173282262
 21
-1479.7
 31
0.0
  0
ARC
  5
1B4
330
3BD
100
AcDbEntity
  8
DATA
  6
Continuous
 62
     7
100
AcDbCircle
 10
-500.5788662344366
 20
-1476.854802615037
 30
0.0
 40
24.85990096593799
100
AcDbArc
 50
353.4281394932806
 51
91.160406671989
  0
LINE
  5
1B5
330
3BD
100
AcDbEntity
  8
DATA
  6
Continuous
 62
     7
100
AcDbLine
 10
-482.8823173282262
 20
-1479.7
 30
0.0
 11
-484.8823173282262
 21
-1503.699999999999
 31
0.0
  0
ARC
  5
1B6
330
3BD
100
AcDbEntity
  8
DATA
  6
Continuous
 62
     7
100
AcDbCircle
 10
-493.7730593181085
 20
-1503.088954468802
 30
0.0
 40
8.911715310301701
100
AcDbArc
 50
269.2975336988488
 51
356.0683415294115
  0
LINE
  5
1B7
330
3BD
100
AcDbEntity
  8
DATA
  6
Continuous
 62
     7
100
AcDbLine
 10
-484.8823173282262
 20
-1503.699999999999
 30
0.0
 11
-477.4084599256075
 21
-1504.213665470426
 31
0.0
  0
LINE
  5
1B8
330
3BD
100
AcDbEntity
  8
DATA
  6
Continuous
 62
     7
100
AcDbLine
 10
-493.8823173282262
 20
-1512.0
 30
0.0
 11
-492.8823173282262
 21
-1462.120659434177
 31
0.0
  0
ARC
  5
1B9
330
3BD
100
AcDbEntity
  8
DATA
  6
Continuous
 62
     7
100
AcDbCircle
 10
-599.7391035476093
 20
-1311.186006474061
 30
0.0
 40
21.51787423419268
100
AcDbArc
 50
96.34642719584356
 51
168.7823663493961
  0
LINE
  5
1BA
330
3BD
100
AcDbEntity
  8
DATA
  6
Continuous
 62
     7
100
AcDbLine
 10
-620.8458859020484
 20
-1306.999999999999
 30
0.0
 11
-627.6176826717737
 21
-1423.299999999999
 31
0.0
  0
ARC
  5
1BB
330
3BD
100
AcDbEntity
  8
DATA
  6
Continuous
 62
     7
100
AcDbCircle
 10
442.908179397189
 20
-1410.687931034482
 30
0.0
 40
1070.600152083908
100
AcDbArc
 50
180.6749812580468
 51
185.5806309845256
  0
ARC
  5
1BC
330
3BD
100
AcDbEntity
  8
DATA
  6
Continuous
 62
     7
100
AcDbCircle
 10
-604.2007848802986
 20
-1514.272021058038
 30
0.0
 40
18.42446433481297
100
AcDbArc
 50
181.6421159564617
 51
275.8662516382934
  0
LINE
  5
1BD
330
3BD
100
AcDbEntity
  8
DATA
  6
Continuous
 62
     7
100
AcDbLine
 10
-588.8823173282262
 20
-1306.799999999999
 30
0.0
 11
-586.5530490355432
 21
-1325.9
 31
0.0
  0
ARC
  5
1BE
330
3BD
100
AcDbEntity
  8
DATA
  6
Continuous
 62
     7
100
AcDbCircle
 10
-587.4211321001675
 20
-1320.92610296074
 30
0.0
 40
14.2014734139854
100
AcDbArc
 50
95.90559626647563
 51
181.5086602204449
  0
LINE
  5
1BF
330
3BD
100
AcDbEntity
  8
DATA
  6
Continuous
 62
     7
100
AcDbLine
 10
-599.1176826717738
 20
-1411.299999999999
 30
0.0
 11
-626.9189590153964
 21
-1411.299999999999
 31
0.0
  0
ARC
  5
1C0
330
3BD
100
AcDbEntity
  8
DATA
  6
Continuous
 62
     7
100
AcDbCircle
 10
120.247206022279
 20
-1413.815642703274
 30
0.0
 40
727.7692365537835
100
AcDbArc
 50
172.6966719881115
 51
179.8019482145508
  0
LINE
  5
1C1
330
3BD
100
AcDbEntity
  8
DATA
  6
Continuous
 62
     7
100
AcDbLine
 10
-601.6176826717737
 20
-1321.299999999999
 30
0.0
 11
-595.5176826717734
 21
-1339.999999999999
 31
0.0
  0
ARC
  5
1C2
330
3BD
100
AcDbEntity
  8
DATA
  6
Continuous
 62
     7
100
AcDbCircle
 10
-583.5944612674722
 20
-1337.680849896262
 30
0.0
 40
12.14667303666487
100
AcDbArc
 50
104.09745091158
 51
191.0069947662936
  0
LINE
  5
1C3
330
3BD
100
AcDbEntity
  8
DATA
  6
Continuous
 62
     7
100
AcDbLine
 10
-595.5176826717734
 20
-1339.999999999999
 30
0.0
 11
-599.1176826717738
 21
-1411.299999999999
 31
0.0
  0
ARC
  5
1C4
330
3BD
100
AcDbEntity
  8
DATA
  6
Continuous
 62
     7
100
AcDbCircle
 10
-581.2213919878886
 20
-1411.898649360917
 30
0.0
 40
26.30310409036719
100
AcDbArc
 50
178.695855682641
 51
270.6615815623069
  0
ARC
  5
1C5
330
3BD
100
AcDbEntity
  8
DATA
  6
Continuous
 62
     7
100
AcDbCircle
 10
-581.9646330614786
 20
-1413.176413460347
 30
0.0
 40
17.25537708679292
100
AcDbArc
 50
173.7570998457752
 51
273.4784927608306
  0
LINE
  5
1C6
330
3BD
100
AcDbEntity
  8
DATA
  6
Continuous
 62
     7
100
AcDbLine
 10
-586.5530490355432
 20
-1325.9
 30
0.0
 11
-589.7016232164723
 21
-1428.6
 31
0.0
  0
CIRCLE
  5
1C7
330
3BD
100
AcDbEntity
  8
DATA
  6
Continuous
 62
     7
100
AcDbCircle
 10
-617.1176826717737
 20
-1422.199999999999
 30
0.0
 40
2.600000000000363
  0
CIRCLE
  5
1C8
330
3BD
100
AcDbEntity
  8
DATA
  6
Continuous
 62
     7
100
AcDbCircle
 10
-617.1176826717737
 20
-1422.199999999999
 30
0.0
 40
5.400000000000545
  0
CIRCLE
  5
1C9
330
3BD
100
AcDbEntity
  8
DATA
  6
Continuous
 62
     7
100
AcDbCircle
 10
-617.1176826717737
 20
-1467.999999999999
 30
0.0
 40
2.600000000000363
  0
CIRCLE
  5
1CA
330
3BD
100
AcDbEntity
  8
DATA
  6
Continuous
 62
     7
100
AcDbCircle
 10
-617.1176826717737
 20
-1467.999999999999
 30
0.0
 40
5.400000000000545
  0
LINE
  5
1CB
330
3BD
100
AcDbEntity
  8
DATA
  6
Continuous
 62
     7
100
AcDbLine
 10
-580.917682671773
 20
-1430.4
 30
0.0
 11
-580.917682671773
 21
-1460.6
 31
0.0
  0
LINE
  5
1CC
330
3BD
100
AcDbEntity
  8
DATA
  6
Continuous
 62
     7
100
AcDbLine
 10
-580.917682671773
 20
-1460.6
 30
0.0
 11
-530.9176826717729
 21
-1460.6
 31
0.0
  0
LINE
  5
1CD
330
3BD
100
AcDbEntity
  8
DATA
  6
Continuous
 62
     7
100
AcDbLine
 10
-599.1176826717738
 20
-1479.7
 30
0.0
 11
-625.465360138116
 21
-1479.7
 31
0.0
  0
ARC
  5
1CE
330
3BD
100
AcDbEntity
  8
DATA
  6
Continuous
 62
     7
100
AcDbCircle
 10
-581.9646330614786
 20
-1477.823586539652
 30
0.0
 40
17.25537708679238
100
AcDbArc
 50
86.52150723916948
 51
186.2429001542248
  0
CIRCLE
  5
1CF
330
3BD
100
AcDbEntity
  8
DATA
  6
Continuous
 62
     7
100
AcDbCircle
 10
-609.3176826717735
 20
-1519.799999999999
 30
0.0
 40
2.600000000000363
  0
CIRCLE
  5
1D0
330
3BD
100
AcDbEntity
  8
DATA
  6
Continuous
 62
     7
100
AcDbCircle
 10
-609.3176826717735
 20
-1519.799999999999
 30
0.0
 40
5.400000000000545
  0
CIRCLE
  5
1D1
330
3BD
100
AcDbEntity
  8
DATA
  6
Continuous
 62
     7
100
AcDbCircle
 10
-605.7176826717732
 20
-1305.199999999999
 30
0.0
 40
2.600000000000363
  0
CIRCLE
  5
1D2
330
3BD
100
AcDbEntity
  8
DATA
  6
Continuous
 62
     7
100
AcDbCircle
 10
-605.7176826717732
 20
-1305.199999999999
 30
0.0
 40
5.400000000000545
  0
LINE
  5
1D3
330
3BD
100
AcDbEntity
  8
DATA
  6
Continuous
 62
     7
100
AcDbLine
 10
-588.1176826717737
 20
-1520.799999999999
 30
0.0
 11
-588.1176826717737
 21
-1512.0
 31
0.0
  0
ARC
  5
1D4
330
3BD
100
AcDbEntity
  8
DATA
  6
Continuous
 62
     7
100
AcDbCircle
 10
-589.1330700853768
 20
-1505.448854128772
 30
0.0
 40
15.38469015480679
100
AcDbArc
 50
179.818056778094
 51
273.7842642533503
  0
LINE
  5
1D5
330
3BD
100
AcDbEntity
  8
DATA
  6
Continuous
 62
     7
100
AcDbLine
 10
-604.5176826717733
 20
-1505.4
 30
0.0
 11
-606.1176826717737
 21
-1479.7
 31
0.0
  0
ARC
  5
1D6
330
3BD
100
AcDbEntity
  8
DATA
  6
Continuous
 62
     7
100
AcDbCircle
 10
-581.4211337655633
 20
-1476.854802615037
 30
0.0
 40
24.85990096593932
100
AcDbArc
 50
88.83959332801103
 51
186.5718605067194
  0
LINE
  5
1D7
330
3BD
100
AcDbEntity
  8
DATA
  6
Continuous
 62
     7
100
AcDbLine
 10
-599.1176826717738
 20
-1479.7
 30
0.0
 11
-597.1176826717737
 21
-1503.699999999999
 31
0.0
  0
ARC
  5
1D8
330
3BD
100
AcDbEntity
  8
DATA
  6
Continuous
 62
     7
100
AcDbCircle
 10
-588.2269406818913
 20
-1503.088954468802
 30
0.0
 40
8.911715310301026
100
AcDbArc
 50
183.9316584705885
 51
270.7024663011512
  0
LINE
  5
1D9
330
3BD
100
AcDbEntity
  8
DATA
  6
Continuous
 62
     7
100
AcDbLine
 10
-597.1176826717737
 20
-1503.699999999999
 30
0.0
 11
-604.5915400743925
 21
-1504.213665470426
 31
0.0
  0
LINE
  5
1DA
330
3BD
100
AcDbEntity
  8
DATA
  6
Continuous
 62
     7
100
AcDbLine
 10
-588.1176826717737
 20
-1512.0
 30
0.0
 11
-589.1176826717737
 21
-1462.120659434177
 31
0.0
  0
LINE
  5
1DB
330
3BD
100
AcDbEntity
  8
DATA
  6
Continuous
 62
     7
100
AcDbLine
 10
-470.0823173282261
 20
-1519.799999999999
 30
0.0
 11
-475.2823173282267
 21
-1519.799999999999
 31
0.0
  0
LINE
  5
1DC
330
3BD
100
AcDbEntity
  8
DATA
  6
Continuous
 62
     7
100
AcDbLine
 10
-472.6823173282264
 20
-1522.4
 30
0.0
 11
-472.6823173282264
 21
-1517.199999999999
 31
0.0
  0
LINE
  5
1DD
330
3BD
100
AcDbEntity
  8
DATA
  6
Continuous
 62
     7
100
AcDbLine
 10
-606.7176826717732
 20
-1519.799999999999
 30
0.0
 11
-611.9176826717739
 21
-1519.799999999999
 31
0.0
  0
LINE
  5
1DE
330
3BD
100
AcDbEntity
  8
DATA
  6
Continuous
 62
     7
100
AcDbLine
 10
-609.3176826717735
 20
-1522.4
 30
0.0
 11
-609.3176826717735
 21
-1517.199999999999
 31
0.0
  0
LINE
  5
1DF
330
3BD
100
AcDbEntity
  8
DATA
  6
Continuous
 62
     7
100
AcDbLine
 10
-614.5176826717734
 20
-1467.999999999999
 30
0.0
 11
-619.7176826717741
 21
-1467.999999999999
 31
0.0
  0
LINE
  5
1E0
330
3BD
100
AcDbEntity
  8
DATA
  6
Continuous
 62
     7
100
AcDbLine
 10
-617.1176826717737
 20
-1470.6
 30
0.0
 11
-617.1176826717737
 21
-1465.399999999999
 31
0.0
  0
LINE
  5
1E1
330
3BD
100
AcDbEntity
  8
DATA
  6
Continuous
 62
     7
100
AcDbLine
 10
-614.5176826717734
 20
-1422.199999999999
 30
0.0
 11
-619.7176826717741
 21
-1422.199999999999
 31
0.0
  0
LINE
  5
1E2
330
3BD
100
AcDbEntity
  8
DATA
  6
Continuous
 62
     7
100
AcDbLine
 10
-617.1176826717737
 20
-1424.799999999999
 30
0.0
 11
-617.1176826717737
 21
-1419.599999999999
 31
0.0
  0
LINE
  5
1E3
330
3BD
100
AcDbEntity
  8
DATA
  6
Continuous
 62
     7
100
AcDbLine
 10
-603.1176826717728
 20
-1305.199999999999
 30
0.0
 11
-608.3176826717735
 21
-1305.199999999999
 31
0.0
  0
LINE
  5
1E4
330
3BD
100
AcDbEntity
  8
DATA
  6
Continuous
 62
     7
100
AcDbLine
 10
-605.7176826717732
 20
-1307.799999999999
 30
0.0
 11
-605.7176826717732
 21
-1302.599999999999
 31
0.0
  0
LINE
  5
1E5
330
3BD
100
AcDbEntity
  8
DATA
  6
Continuous
 62
     7
100
AcDbLine
 10
-473.6823173282264
 20
-1305.199999999999
 30
0.0
 11
-478.8823173282271
 21
-1305.199999999999
 31
0.0
  0
LINE
  5
1E6
330
3BD
100
AcDbEntity
  8
DATA
  6
Continuous
 62
     7
100
AcDbLine
 10
-476.2823173282267
 20
-1307.799999999999
 30
0.0
 11
-476.2823173282267
 21
-1302.599999999999
 31
0.0
  0
LINE
  5
1E7
330
3BD
100
AcDbEntity
  8
DATA
  6
Continuous
 62
     7
100
AcDbLine
 10
-462.2823173282257
 20
-1422.199999999999
 30
0.0
 11
-467.4823173282265
 21
-1422.199999999999
 31
0.0
  0
LINE
  5
1E8
330
3BD
100
AcDbEntity
  8
DATA
  6
Continuous
 62
     7
100
AcDbLine
 10
-464.8823173282262
 20
-1424.799999999999
 30
0.0
 11
-464.8823173282262
 21
-1419.599999999999
 31
0.0
  0
LINE
  5
1E9
330
3BD
100
AcDbEntity
  8
DATA
  6
Continuous
 62
     7
100
AcDbLine
 10
-462.2823173282257
 20
-1467.999999999999
 30
0.0
 11
-467.4823173282265
 21
-1467.999999999999
 31
0.0
  0
LINE
  5
1EA
330
3BD
100
AcDbEntity
  8
DATA
  6
Continuous
 62
     7
100
AcDbLine
 10
-464.8823173282262
 20
-1470.6
 30
0.0
 11
-464.8823173282262
 21
-1465.399999999999
 31
0.0
  0
ARC
  5
1EB
330
3BD
100
AcDbEntity
  8
DATA
  6
Continuous
 62
     7
100
AcDbCircle
 10
-159.2823173282267
 20
-1955.430559851313
 30
0.0
 40
668.4305598513138
100
AcDbArc
 50
84.75385589582201
 51
95.24614410417802
  0
ARC
  5
1EC
330
3BD
100
AcDbEntity
  8
DATA
  6
Continuous
 62
     7
100
AcDbCircle
 10
-218.0214208758362
 20
-1311.186006474061
 30
0.0
 40
21.51787423419268
100
AcDbArc
 50
96.34642719584356
 51
168.7823663493961
  0
LINE
  5
1ED
330
3BD
100
AcDbEntity
  8
DATA
  6
Continuous
 62
     7
100
AcDbLine
 10
-239.1282032302752
 20
-1306.999999999999
 30
0.0
 11
-245.9000000000005
 21
-1423.299999999999
 31
0.0
  0
ARC
  5
1EE
330
3BD
100
AcDbEntity
  8
DATA
  6
Continuous
 62
     7
100
AcDbCircle
 10
824.6258620689641
 20
-1410.687931034482
 30
0.0
 40
1070.600152083909
100
AcDbArc
 50
180.6749812580468
 51
185.5806309845256
  0
ARC
  5
1EF
330
3BD
100
AcDbEntity
  8
DATA
  6
Continuous
 62
     7
100
AcDbCircle
 10
-159.2823173282267
 20
-593.6354479409169
 30
0.0
 40
940.964552059083
100
AcDbArc
 50
266.2636895878152
 51
273.7363104121848
  0
ARC
  5
1F0
330
3BD
100
AcDbEntity
  8
DATA
  6
Continuous
 62
     7
100
AcDbCircle
 10
-222.4831022085254
 20
-1514.272021058038
 30
0.0
 40
18.42446433481297
100
AcDbArc
 50
181.6421159564617
 51
275.8662516382934
  0
LINE
  5
1F1
330
3BD
100
AcDbEntity
  8
DATA
  6
Continuous
 62
     7
100
AcDbLine
 10
-207.164634656453
 20
-1306.799999999999
 30
0.0
 11
-204.8353663637699
 21
-1325.9
 31
0.0
  0
ARC
  5
1F2
330
3BD
100
AcDbEntity
  8
DATA
  6
Continuous
 62
     7
100
AcDbCircle
 10
-159.2823173282267
 20
-1479.912793286229
 30
0.0
 40
179.612793286229
100
AcDbArc
 50
74.53876524041849
 51
105.4612347595815
  0
ARC
  5
1F3
330
3BD
100
AcDbEntity
  8
DATA
  6
Continuous
 62
     7
100
AcDbCircle
 10
-205.7034494283944
 20
-1320.92610296074
 30
0.0
 40
14.2014734139854
100
AcDbArc
 50
95.90559626647563
 51
181.5086602204449
  0
LINE
  5
1F4
330
3BD
100
AcDbEntity
  8
DATA
  6
Continuous
 62
     7
100
AcDbLine
 10
-217.4000000000006
 20
-1411.299999999999
 30
0.0
 11
-245.2012763436233
 21
-1411.299999999999
 31
0.0
  0
LINE
  5
1F5
330
3BD
100
AcDbEntity
  8
DATA
  6
Continuous
 62
     7
100
AcDbLine
 10
-113.7292682926836
 20
-1325.9
 30
0.0
 11
-204.8353663637699
 21
-1325.9
 31
0.0
  0
ARC
  5
1F6
330
3BD
100
AcDbEntity
  8
DATA
  6
Continuous
 62
     7
100
AcDbCircle
 10
501.964888694054
 20
-1413.815642703273
 30
0.0
 40
727.7692365537852
100
AcDbArc
 50
172.6966719881116
 51
179.801948214551
  0
LINE
  5
1F7
330
3BD
100
AcDbEntity
  8
DATA
  6
Continuous
 62
     7
100
AcDbLine
 10
-219.9000000000006
 20
-1321.299999999999
 30
0.0
 11
-213.8000000000002
 21
-1339.999999999999
 31
0.0
  0
ARC
  5
1F8
330
3BD
100
AcDbEntity
  8
DATA
  6
Continuous
 62
     7
100
AcDbCircle
 10
-201.8767785956988
 20
-1337.680849896262
 30
0.0
 40
12.14667303666487
100
AcDbArc
 50
104.09745091158
 51
191.0069947662936
  0
LINE
  5
1F9
330
3BD
100
AcDbEntity
  8
DATA
  6
Continuous
 62
     7
100
AcDbLine
 10
-213.8000000000002
 20
-1339.999999999999
 30
0.0
 11
-217.4000000000006
 21
-1411.299999999999
 31
0.0
  0
ARC
  5
1FA
330
3BD
100
AcDbEntity
  8
DATA
  6
Continuous
 62
     7
100
AcDbCircle
 10
-199.5037093161154
 20
-1411.898649360917
 30
0.0
 40
26.30310409036721
100
AcDbArc
 50
178.6958556826391
 51
270.6615815623069
  0
ARC
  5
1FB
330
3BD
100
AcDbEntity
  8
DATA
  6
Continuous
 62
     7
100
AcDbCircle
 10
-200.2469503897055
 20
-1413.176413460347
 30
0.0
 40
17.25537708679292
100
AcDbArc
 50
173.7570998457752
 51
273.4784927608306
  0
LINE
  5
1FC
330
3BD
100
AcDbEntity
  8
DATA
  6
Continuous
 62
     7
100
AcDbLine
 10
-204.8353663637699
 20
-1325.9
 30
0.0
 11
-207.9839405446992
 21
-1428.6
 31
0.0
  0
CIRCLE
  5
1FD
330
3BD
100
AcDbEntity
  8
DATA
  6
Continuous
 62
     7
100
AcDbCircle
 10
-235.4000000000005
 20
-1422.2
 30
0.0
 40
2.600000000000363
  0
CIRCLE
  5
1FE
330
3BD
100
AcDbEntity
  8
DATA
  6
Continuous
 62
     7
100
AcDbCircle
 10
-235.4000000000005
 20
-1422.2
 30
0.0
 40
5.400000000000545
  0
CIRCLE
  5
1FF
330
3BD
100
AcDbEntity
  8
DATA
  6
Continuous
 62
     7
100
AcDbCircle
 10
-235.4000000000005
 20
-1467.999999999999
 30
0.0
 40
2.600000000000363
  0
CIRCLE
  5
200
330
3BD
100
AcDbEntity
  8
DATA
  6
Continuous
 62
     7
100
AcDbCircle
 10
-235.4000000000005
 20
-1467.999999999999
 30
0.0
 40
5.400000000000545
  0
LINE
  5
201
330
3BD
100
AcDbEntity
  8
DATA
  6
Continuous
 62
     7
100
AcDbLine
 10
-199.1999999999998
 20
-1430.4
 30
0.0
 11
-199.1999999999998
 21
-1460.6
 31
0.0
  0
LINE
  5
202
330
3BD
100
AcDbEntity
  8
DATA
  6
Continuous
 62
     7
100
AcDbLine
 10
-199.1999999999998
 20
-1430.4
 30
0.0
 11
-119.3646346564537
 21
-1430.4
 31
0.0
  0
LINE
  5
203
330
3BD
100
AcDbEntity
  8
DATA
  6
Continuous
 62
     7
100
AcDbLine
 10
-199.1999999999998
 20
-1438.199999999999
 30
0.0
 11
-119.3646346564537
 21
-1438.199999999999
 31
0.0
  0
LINE
  5
204
330
3BD
100
AcDbEntity
  8
DATA
  6
Continuous
 62
     7
100
AcDbLine
 10
-199.1999999999998
 20
-1451.999999999999
 30
0.0
 11
-119.3646346564537
 21
-1451.999999999999
 31
0.0
  0
LINE
  5
205
330
3BD
100
AcDbEntity
  8
DATA
  6
Continuous
 62
     7
100
AcDbLine
 10
-199.1999999999998
 20
-1460.6
 30
0.0
 11
-149.1999999999998
 21
-1460.6
 31
0.0
  0
LINE
  5
206
330
3BD
100
AcDbEntity
  8
DATA
  6
Continuous
 62
     7
100
AcDbLine
 10
-217.4000000000006
 20
-1479.7
 30
0.0
 11
-243.7476774663428
 21
-1479.7
 31
0.0
  0
ARC
  5
207
330
3BD
100
AcDbEntity
  8
DATA
  6
Continuous
 62
     7
100
AcDbCircle
 10
-200.2469503897055
 20
-1477.823586539652
 30
0.0
 40
17.25537708679238
100
AcDbArc
 50
86.52150723916948
 51
186.2429001542248
  0
CIRCLE
  5
208
330
3BD
100
AcDbEntity
  8
DATA
  6
Continuous
 62
     7
100
AcDbCircle
 10
-227.6000000000004
 20
-1519.799999999999
 30
0.0
 40
2.600000000000363
  0
CIRCLE
  5
209
330
3BD
100
AcDbEntity
  8
DATA
  6
Continuous
 62
     7
100
AcDbCircle
 10
-227.6000000000004
 20
-1519.799999999999
 30
0.0
 40
5.400000000000545
  0
CIRCLE
  5
20A
330
3BD
100
AcDbEntity
  8
DATA
  6
Continuous
 62
     7
100
AcDbCircle
 10
-224.0
 20
-1305.199999999999
 30
0.0
 40
2.600000000000363
  0
CIRCLE
  5
20B
330
3BD
100
AcDbEntity
  8
DATA
  6
Continuous
 62
     7
100
AcDbCircle
 10
-224.0
 20
-1305.199999999999
 30
0.0
 40
5.400000000000545
  0
LINE
  5
20C
330
3BD
100
AcDbEntity
  8
DATA
  6
Continuous
 62
     7
100
AcDbLine
 10
-112.164634656453
 20
-1520.799999999999
 30
0.0
 11
-206.4000000000005
 21
-1520.799999999999
 31
0.0
  0
LINE
  5
20D
330
3BD
100
AcDbEntity
  8
DATA
  6
Continuous
 62
     7
100
AcDbLine
 10
-112.164634656453
 20
-1512.0
 30
0.0
 11
-206.4000000000005
 21
-1512.0
 31
0.0
  0
LINE
  5
20E
330
3BD
100
AcDbEntity
  8
DATA
  6
Continuous
 62
     7
100
AcDbLine
 10
-206.4000000000005
 20
-1520.799999999999
 30
0.0
 11
-206.4000000000005
 21
-1512.0
 31
0.0
  0
ARC
  5
20F
330
3BD
100
AcDbEntity
  8
DATA
  6
Continuous
 62
     7
100
AcDbCircle
 10
-207.4153874136036
 20
-1505.448854128772
 30
0.0
 40
15.38469015480679
100
AcDbArc
 50
179.818056778094
 51
273.7842642533503
  0
LINE
  5
210
330
3BD
100
AcDbEntity
  8
DATA
  6
Continuous
 62
     7
100
AcDbLine
 10
-222.8000000000001
 20
-1505.4
 30
0.0
 11
-224.4000000000005
 21
-1479.7
 31
0.0
  0
ARC
  5
211
330
3BD
100
AcDbEntity
  8
DATA
  6
Continuous
 62
     7
100
AcDbCircle
 10
-199.7034510937901
 20
-1476.854802615037
 30
0.0
 40
24.85990096593932
100
AcDbArc
 50
88.83959332801103
 51
186.5718605067194
  0
LINE
  5
212
330
3BD
100
AcDbEntity
  8
DATA
  6
Continuous
 62
     7
100
AcDbLine
 10
-217.4000000000006
 20
-1479.7
 30
0.0
 11
-215.4000000000006
 21
-1503.699999999999
 31
0.0
  0
ARC
  5
213
330
3BD
100
AcDbEntity
  8
DATA
  6
Continuous
 62
     7
100
AcDbCircle
 10
-206.5092580101182
 20
-1503.088954468802
 30
0.0
 40
8.911715310301026
100
AcDbArc
 50
183.9316584705885
 51
270.7024663011512
  0
LINE
  5
214
330
3BD
100
AcDbEntity
  8
DATA
  6
Continuous
 62
     7
100
AcDbLine
 10
-215.4000000000006
 20
-1503.699999999999
 30
0.0
 11
-222.8738574026193
 21
-1504.213665470426
 31
0.0
  0
LINE
  5
215
330
3BD
100
AcDbEntity
  8
DATA
  6
Continuous
 62
     7
100
AcDbLine
 10
-206.4000000000005
 20
-1512.0
 30
0.0
 11
-207.4000000000006
 21
-1462.120659434177
 31
0.0
  0
ARC
  5
216
330
3BD
100
AcDbEntity
  8
DATA
  6
Continuous
 62
     7
100
AcDbCircle
 10
-100.5432137806174
 20
-1311.186006474061
 30
0.0
 40
21.51787423419305
100
AcDbArc
 50
11.21763365060389
 51
83.65357280415649
  0
LINE
  5
217
330
3BD
100
AcDbEntity
  8
DATA
  6
Continuous
 62
     7
100
AcDbLine
 10
-79.43643142617837
 20
-1306.999999999999
 30
0.0
 11
-72.66463465645301
 21
-1423.299999999999
 31
0.0
  0
ARC
  5
218
330
3BD
100
AcDbEntity
  8
DATA
  6
Continuous
 62
     7
100
AcDbCircle
 10
-1143.190496725416
 20
-1410.687931034482
 30
0.0
 40
1070.600152083908
100
AcDbArc
 50
354.4193690154744
 51
359.3250187419533
  0
ARC
  5
219
330
3BD
100
AcDbEntity
  8
DATA
  6
Continuous
 62
     7
100
AcDbCircle
 10
-96.08153244792813
 20
-1514.272021058038
 30
0.0
 40
18.42446433481197
100
AcDbArc
 50
264.1337483617066
 51
358.3578840435383
  0
LINE
  5
21A
330
3BD
100
AcDbEntity
  8
DATA
  6
Continuous
 62
     7
100
AcDbLine
 10
-111.4000000000005
 20
-1306.799999999999
 30
0.0
 11
-113.7292682926836
 21
-1325.9
 31
0.0
  0
ARC
  5
21B
330
3BD
100
AcDbEntity
  8
DATA
  6
Continuous
 62
     7
100
AcDbCircle
 10
-112.8611852280592
 20
-1320.92610296074
 30
0.0
 40
14.20147341398555
100
AcDbArc
 50
358.4913397795551
 51
84.09440373352442
  0
LINE
  5
21C
330
3BD
100
AcDbEntity
  8
DATA
  6
Continuous
 62
     7
100
AcDbLine
 10
-101.164634656453
 20
-1411.299999999999
 30
0.0
 11
-73.3633583128303
 21
-1411.299999999999
 31
0.0
  0
ARC
  5
21D
330
3BD
100
AcDbEntity
  8
DATA
  6
Continuous
 62
     7
100
AcDbCircle
 10
-820.5295233505056
 20
-1413.815642703274
 30
0.0
 40
727.7692365537835
100
AcDbArc
 50
0.1980517854491068
 51
7.303328011888487
  0
LINE
  5
21E
330
3BD
100
AcDbEntity
  8
DATA
  6
Continuous
 62
     7
100
AcDbLine
 10
-98.66463465645301
 20
-1321.299999999999
 30
0.0
 11
-104.7646346564534
 21
-1339.999999999999
 31
0.0
  0
ARC
  5
21F
330
3BD
100
AcDbEntity
  8
DATA
  6
Continuous
 62
     7
100
AcDbCircle
 10
-116.6878560607547
 20
-1337.680849896262
 30
0.0
 40
12.14667303666538
100
AcDbArc
 50
348.9930052337064
 51
75.90254908841995
  0
LINE
  5
220
330
3BD
100
AcDbEntity
  8
DATA
  6
Continuous
 62
     7
100
AcDbLine
 10
-104.7646346564534
 20
-1339.999999999999
 30
0.0
 11
-101.164634656453
 21
-1411.299999999999
 31
0.0
  0
ARC
  5
221
330
3BD
100
AcDbEntity
  8
DATA
  6
Continuous
 62
     7
100
AcDbCircle
 10
-119.0609253403381
 20
-1411.898649360917
 30
0.0
 40
26.30310409036667
100
AcDbArc
 50
269.338418437693
 51
1.304144317358918
  0
ARC
  5
222
330
3BD
100
AcDbEntity
  8
DATA
  6
Continuous
 62
     7
100
AcDbCircle
 10
-118.3176842667481
 20
-1413.176413460347
 30
0.0
 40
17.25537708679238
100
AcDbArc
 50
266.5215072391695
 51
6.242900154224798
  0
LINE
  5
223
330
3BD
100
AcDbEntity
  8
DATA
  6
Continuous
 62
     7
100
AcDbLine
 10
-113.7292682926836
 20
-1325.9
 30
0.0
 11
-110.5806941117544
 21
-1428.6
 31
0.0
  0
CIRCLE
  5
224
330
3BD
100
AcDbEntity
  8
DATA
  6
Continuous
 62
     7
100
AcDbCircle
 10
-83.16463465645302
 20
-1422.199999999999
 30
0.0
 40
2.600000000000363
  0
CIRCLE
  5
225
330
3BD
100
AcDbEntity
  8
DATA
  6
Continuous
 62
     7
100
AcDbCircle
 10
-83.16463465645302
 20
-1422.199999999999
 30
0.0
 40
5.400000000000545
  0
CIRCLE
  5
226
330
3BD
100
AcDbEntity
  8
DATA
  6
Continuous
 62
     7
100
AcDbCircle
 10
-83.16463465645302
 20
-1467.999999999999
 30
0.0
 40
2.600000000000363
  0
CIRCLE
  5
227
330
3BD
100
AcDbEntity
  8
DATA
  6
Continuous
 62
     7
100
AcDbCircle
 10
-83.16463465645302
 20
-1467.999999999999
 30
0.0
 40
5.400000000000545
  0
LINE
  5
228
330
3BD
100
AcDbEntity
  8
DATA
  6
Continuous
 62
     7
100
AcDbLine
 10
-119.3646346564537
 20
-1430.4
 30
0.0
 11
-119.3646346564537
 21
-1460.6
 31
0.0
  0
LINE
  5
229
330
3BD
100
AcDbEntity
  8
DATA
  6
Continuous
 62
     7
100
AcDbLine
 10
-119.3646346564537
 20
-1460.6
 30
0.0
 11
-169.3646346564537
 21
-1460.6
 31
0.0
  0
LINE
  5
22A
330
3BD
100
AcDbEntity
  8
DATA
  6
Continuous
 62
     7
100
AcDbLine
 10
-101.164634656453
 20
-1479.7
 30
0.0
 11
-74.81695719011077
 21
-1479.7
 31
0.0
  0
ARC
  5
22B
330
3BD
100
AcDbEntity
  8
DATA
  6
Continuous
 62
     7
100
AcDbCircle
 10
-118.3176842667481
 20
-1477.823586539652
 30
0.0
 40
17.25537708679292
100
AcDbArc
 50
353.7570998457752
 51
93.47849276083051
  0
CIRCLE
  5
22C
330
3BD
100
AcDbEntity
  8
DATA
  6
Continuous
 62
     7
100
AcDbCircle
 10
-90.96463465645321
 20
-1519.799999999999
 30
0.0
 40
2.600000000000363
  0
CIRCLE
  5
22D
330
3BD
100
AcDbEntity
  8
DATA
  6
Continuous
 62
     7
100
AcDbCircle
 10
-90.96463465645321
 20
-1519.799999999999
 30
0.0
 40
5.400000000000545
  0
CIRCLE
  5
22E
330
3BD
100
AcDbEntity
  8
DATA
  6
Continuous
 62
     7
100
AcDbCircle
 10
-94.56463465645358
 20
-1305.199999999999
 30
0.0
 40
2.600000000000363
  0
CIRCLE
  5
22F
330
3BD
100
AcDbEntity
  8
DATA
  6
Continuous
 62
     7
100
AcDbCircle
 10
-94.56463465645358
 20
-1305.199999999999
 30
0.0
 40
5.400000000000545
  0
LINE
  5
230
330
3BD
100
AcDbEntity
  8
DATA
  6
Continuous
 62
     7
100
AcDbLine
 10
-112.164634656453
 20
-1520.799999999999
 30
0.0
 11
-112.164634656453
 21
-1512.0
 31
0.0
  0
ARC
  5
231
330
3BD
100
AcDbEntity
  8
DATA
  6
Continuous
 62
     7
100
AcDbCircle
 10
-111.1492472428499
 20
-1505.448854128772
 30
0.0
 40
15.38469015480662
100
AcDbArc
 50
266.2157357466497
 51
0.1819432219060104
  0
LINE
  5
232
330
3BD
100
AcDbEntity
  8
DATA
  6
Continuous
 62
     7
100
AcDbLine
 10
-95.76463465645337
 20
-1505.4
 30
0.0
 11
-94.164634656453
 21
-1479.7
 31
0.0
  0
ARC
  5
233
330
3BD
100
AcDbEntity
  8
DATA
  6
Continuous
 62
     7
100
AcDbCircle
 10
-118.8611835626634
 20
-1476.854802615037
 30
0.0
 40
24.85990096593799
100
AcDbArc
 50
353.4281394932806
 51
91.160406671989
  0
LINE
  5
234
330
3BD
100
AcDbEntity
  8
DATA
  6
Continuous
 62
     7
100
AcDbLine
 10
-101.164634656453
 20
-1479.7
 30
0.0
 11
-103.164634656453
 21
-1503.699999999999
 31
0.0
  0
ARC
  5
235
330
3BD
100
AcDbEntity
  8
DATA
  6
Continuous
 62
     7
100
AcDbCircle
 10
-112.0553766463354
 20
-1503.088954468802
 30
0.0
 40
8.911715310301701
100
AcDbArc
 50
269.2975336988488
 51
356.0683415294115
  0
LINE
  5
236
330
3BD
100
AcDbEntity
  8
DATA
  6
Continuous
 62
     7
100
AcDbLine
 10
-103.164634656453
 20
-1503.699999999999
 30
0.0
 11
-95.69077725383429
 21
-1504.213665470426
 31
0.0
  0
LINE
  5
237
330
3BD
100
AcDbEntity
  8
DATA
  6
Continuous
 62
     7
100
AcDbLine
 10
-112.164634656453
 20
-1512.0
 30
0.0
 11
-111.164634656453
 21
-1462.120659434177
 31
0.0
  0
LINE
  5
238
330
3BD
100
AcDbEntity
  8
DATA
  6
Continuous
 62
     7
100
AcDbLine
 10
-230.2000000000008
 20
-1519.799999999999
 30
0.0
 11
-225.0
 21
-1519.799999999999
 31
0.0
  0
LINE
  5
239
330
3BD
100
AcDbEntity
  8
DATA
  6
Continuous
 62
     7
100
AcDbLine
 10
-227.6000000000004
 20
-1522.4
 30
0.0
 11
-227.6000000000004
 21
-1517.199999999999
 31
0.0
  0
LINE
  5
23A
330
3BD
100
AcDbEntity
  8
DATA
  6
Continuous
 62
     7
100
AcDbLine
 10
-93.56463465645358
 20
-1519.799999999999
 30
0.0
 11
-88.36463465645282
 21
-1519.799999999999
 31
0.0
  0
LINE
  5
23B
330
3BD
100
AcDbEntity
  8
DATA
  6
Continuous
 62
     7
100
AcDbLine
 10
-90.96463465645321
 20
-1522.4
 30
0.0
 11
-90.96463465645321
 21
-1517.199999999999
 31
0.0
  0
LINE
  5
23C
330
3BD
100
AcDbEntity
  8
DATA
  6
Continuous
 62
     7
100
AcDbLine
 10
-85.76463465645337
 20
-1467.999999999999
 30
0.0
 11
-80.56463465645265
 21
-1467.999999999999
 31
0.0
  0
LINE
  5
23D
330
3BD
100
AcDbEntity
  8
DATA
  6
Continuous
 62
     7
100
AcDbLine
 10
-83.16463465645302
 20
-1470.6
 30
0.0
 11
-83.16463465645302
 21
-1465.399999999999
 31
0.0
  0
LINE
  5
23E
330
3BD
100
AcDbEntity
  8
DATA
  6
Continuous
 62
     7
100
AcDbLine
 10
-85.76463465645337
 20
-1422.199999999999
 30
0.0
 11
-80.56463465645265
 21
-1422.199999999999
 31
0.0
  0
LINE
  5
23F
330
3BD
100
AcDbEntity
  8
DATA
  6
Continuous
 62
     7
100
AcDbLine
 10
-83.16463465645302
 20
-1424.799999999999
 30
0.0
 11
-83.16463465645302
 21
-1419.599999999999
 31
0.0
  0
LINE
  5
240
330
3BD
100
AcDbEntity
  8
DATA
  6
Continuous
 62
     7
100
AcDbLine
 10
-97.16463465645391
 20
-1305.199999999999
 30
0.0
 11
-91.96463465645321
 21
-1305.199999999999
 31
0.0
  0
LINE
  5
241
330
3BD
100
AcDbEntity
  8
DATA
  6
Continuous
 62
     7
100
AcDbLine
 10
-94.56463465645358
 20
-1307.799999999999
 30
0.0
 11
-94.56463465645358
 21
-1302.599999999999
 31
0.0
  0
LINE
  5
242
330
3BD
100
AcDbEntity
  8
DATA
  6
Continuous
 62
     7
100
AcDbLine
 10
-226.6000000000004
 20
-1305.199999999999
 30
0.0
 11
-221.3999999999996
 21
-1305.199999999999
 31
0.0
  0
LINE
  5
243
330
3BD
100
AcDbEntity
  8
DATA
  6
Continuous
 62
     7
100
AcDbLine
 10
-224.0
 20
-1307.799999999999
 30
0.0
 11
-224.0
 21
-1302.599999999999
 31
0.0
  0
LINE
  5
244
330
3BD
100
AcDbEntity
  8
DATA
  6
Continuous
 62
     7
100
AcDbLine
 10
-238.0000000000009
 20
-1422.199999999999
 30
0.0
 11
-232.8000000000002
 21
-1422.199999999999
 31
0.0
  0
LINE
  5
245
330
3BD
100
AcDbEntity
  8
DATA
  6
Continuous
 62
     7
100
AcDbLine
 10
-235.4000000000005
 20
-1424.799999999999
 30
0.0
 11
-235.4000000000005
 21
-1419.599999999999
 31
0.0
  0
LINE
  5
246
330
3BD
100
AcDbEntity
  8
DATA
  6
Continuous
 62
     7
100
AcDbLine
 10
-238.0000000000009
 20
-1467.999999999999
 30
0.0
 11
-232.8000000000002
 21
-1467.999999999999
 31
0.0
  0
LINE
  5
247
330
3BD
100
AcDbEntity
  8
DATA
  6
Continuous
 62
     7
100
AcDbLine
 10
-235.4000000000005
 20
-1470.6
 30
0.0
 11
-235.4000000000005
 21
-1465.399999999999
 31
0.0
  0
LINE
  5
248
330
3BD
100
AcDbEntity
  8
DATA
  6
Continuous
 62
     7
100
AcDbLine
 10
-622.8499999999997
 20
-1704.8
 30
0.0
 11
-622.8499999999997
 21
-1700.0
 31
0.0
  0
LINE
  5
249
330
3BD
100
AcDbEntity
  8
DATA
  6
Continuous
 62
     7
100
AcDbLine
 10
-585.8499999999998
 20
-1704.8
 30
0.0
 11
-585.8499999999998
 21
-1700.0
 31
0.0
  0
LINE
  5
24A
330
3BD
100
AcDbEntity
  8
DATA
  6
Continuous
 62
     7
100
AcDbLine
 10
-620.8499999999998
 20
-1706.8
 30
0.0
 11
-587.8499999999998
 21
-1706.8
 31
0.0
  0
ARC
  5
24B
330
3BD
100
AcDbEntity
  8
DATA
  6
Continuous
 62
     7
100
AcDbCircle
 10
-620.8499999999998
 20
-1704.8
 30
0.0
 40
2.0
100
AcDbArc
 50
180.0
 51
270.0
  0
ARC
  5
24C
330
3BD
100
AcDbEntity
  8
DATA
  6
Continuous
 62
     7
100
AcDbCircle
 10
-587.8499999999998
 20
-1704.8
 30
0.0
 40
2.0
100
AcDbArc
 50
270.0
 51
0.0
  0
LINE
  5
24D
330
3BD
100
AcDbEntity
  8
DATA
  6
Continuous
 62
     7
100
AcDbLine
 10
-585.8499999999998
 20
-1704.8
 30
0.0
 11
-622.8499999999997
 21
-1704.8
 31
0.0
  0
LINE
  5
24E
330
3BD
100
AcDbEntity
  8
DATA
  6
Continuous
 62
     7
100
AcDbLine
 10
-126.8199999999997
 20
-1704.8
 30
0.0
 11
-126.8199999999997
 21
-1700.0
 31
0.0
  0
LINE
  5
24F
330
3BD
100
AcDbEntity
  8
DATA
  6
Continuous
 62
     7
100
AcDbLine
 10
-89.81999999999969
 20
-1704.8
 30
0.0
 11
-89.81999999999969
 21
-1700.0
 31
0.0
  0
LINE
  5
250
330
3BD
100
AcDbEntity
  8
DATA
  6
Continuous
 62
     7
100
AcDbLine
 10
-124.8199999999997
 20
-1706.8
 30
0.0
 11
-91.81999999999971
 21
-1706.8
 31
0.0
  0
ARC
  5
251
330
3BD
100
AcDbEntity
  8
DATA
  6
Continuous
 62
     7
100
AcDbCircle
 10
-124.8199999999997
 20
-1704.8
 30
0.0
 40
2.0
100
AcDbArc
 50
180.0
 51
270.0
  0
ARC
  5
252
330
3BD
100
AcDbEntity
  8
DATA
  6
Continuous
 62
     7
100
AcDbCircle
 10
-91.81999999999971
 20
-1704.8
 30
0.0
 40
2.0
100
AcDbArc
 50
270.0
 51
0.0
  0
LINE
  5
253
330
3BD
100
AcDbEntity
  8
DATA
  6
Continuous
 62
     7
100
AcDbLine
 10
-89.81999999999969
 20
-1704.8
 30
0.0
 11
-126.8199999999997
 21
-1704.8
 31
0.0
  0
LINE
  5
254
330
3BD
100
AcDbEntity
  8
DATA
  6
Continuous
 62
     7
100
AcDbLine
 10
-1443.151711483705
 20
-986.3325081193393
 30
0.0
 11
-1443.151711483705
 21
-381.5
 31
0.0
  0
ARC
  5
255
330
3BD
100
AcDbEntity
  8
DATA
  6
Continuous
 62
     7
100
AcDbCircle
 10
-1424.997097192617
 20
-384.3815714479931
 30
0.0
 40
18.38187895912876
100
AcDbArc
 50
90.33141618079735
 51
170.9810265399228
  0
LINE
  5
256
330
3BD
100
AcDbEntity
  8
DATA
  6
Continuous
 62
     7
100
AcDbLine
 10
-1425.103422967409
 20
-366.0
 30
0.0
 11
-774.8965770325903
 21
-366.0
 31
0.0
  0
LINE
  5
257
330
3BD
100
AcDbEntity
  8
DATA
  6
Continuous
 62
     7
100
AcDbLine
 10
-1425.103422967409
 20
-366.0
 30
0.0
 11
-1425.103422967409
 21
-985.6340629072914
 31
0.0
  0
LINE
  5
258
330
3BD
100
AcDbEntity
  8
DATA
  6
Continuous
 62
     7
100
AcDbLine
 10
-756.8482885162953
 20
-381.5
 30
0.0
 11
-1443.151711483705
 21
-381.5
 31
0.0
  0
LINE
  5
259
330
3BD
100
AcDbEntity
  8
DATA
  6
Continuous
 62
     7
100
AcDbLine
 10
-1335.22900754688
 20
-1050.0
 30
0.0
 11
-864.7709924531197
 21
-1050.0
 31
0.0
  0
LINE
  5
25A
330
3BD
100
AcDbEntity
  8
DATA
  6
Continuous
 62
     7
100
AcDbLine
 10
-1345.794464090398
 20
-1047.657694675916
 30
0.0
 11
-1428.717168027222
 21
-1008.990202795255
 31
0.0
  0
ARC
  5
25B
330
3BD
100
AcDbEntity
  8
DATA
  6
Continuous
 62
     7
100
AcDbCircle
 10
-1418.151711483704
 20
-986.3325081193393
 30
0.0
 40
25.00000000000045
100
AcDbArc
 50
180.0
 51
244.999999999999
  0
LINE
  5
25C
330
3BD
100
AcDbEntity
  8
DATA
  6
Continuous
 62
     7
100
AcDbLine
 10
-1341.185851625343
 20
-1032.728847337958
 30
0.0
 11
-1417.886151239168
 21
-996.962910245249
 31
0.0
  0
ARC
  5
25D
330
3BD
100
AcDbEntity
  8
DATA
  6
Continuous
 62
     7
100
AcDbCircle
 10
-1412.60342296741
 20
-985.6340629072905
 30
0.0
 40
12.49999999999954
100
AcDbArc
 50
180.0000000000021
 51
245.0000000000035
  0
LINE
  5
25E
330
3BD
100
AcDbEntity
  8
DATA
  6
Continuous
 62
     7
100
AcDbLine
 10
-1425.103422967409
 20
-985.6340629072914
 30
0.0
 11
-1443.151711483705
 21
-985.6340629072914
 31
0.0
  0
LINE
  5
25F
330
3BD
100
AcDbEntity
  8
DATA
  6
Continuous
 62
     7
100
AcDbLine
 10
-1417.886151239168
 20
-996.962910245249
 30
0.0
 11
-1424.427358249212
 21
-1010.99057394677
 31
0.0
  0
LINE
  5
260
330
3BD
100
AcDbEntity
  8
DATA
  6
Continuous
 62
     7
100
AcDbLine
 10
-1335.903123353584
 20
-1033.9
 30
0.0
 11
-864.0968766464158
 21
-1033.9
 31
0.0
  0
ARC
  5
261
330
3BD
100
AcDbEntity
  8
DATA
  6
Continuous
 62
     7
100
AcDbCircle
 10
-1335.903123353584
 20
-1021.4
 30
0.0
 40
12.49999999999979
100
AcDbArc
 50
245.0000000000007
 51
270.0
  0
ARC
  5
262
330
3BD
100
AcDbEntity
  8
DATA
  6
Continuous
 62
     7
100
AcDbCircle
 10
-1335.22900754688
 20
-1025.0
 30
0.0
 40
25.00000000000016
100
AcDbArc
 50
244.999999999999
 51
269.999999999999
  0
LINE
  5
263
330
3BD
100
AcDbEntity
  8
DATA
  6
Continuous
 62
     7
100
AcDbLine
 10
-1345.794464090398
 20
-1047.657694675916
 30
0.0
 11
-1341.185851625343
 21
-1032.728847337958
 31
0.0
  0
LINE
  5
264
330
3BD
100
AcDbEntity
  8
DATA
  6
Continuous
 62
     7
100
AcDbLine
 10
-1335.903123353584
 20
-1033.9
 30
0.0
 11
-1335.22900754688
 21
-1050.0
 31
0.0
  0
LINE
  5
265
330
3BD
100
AcDbEntity
  8
DATA
  6
Continuous
 62
     7
100
AcDbLine
 10
-756.8482885162953
 20
-986.3325081193393
 30
0.0
 11
-756.8482885162953
 21
-381.5
 31
0.0
  0
ARC
  5
266
330
3BD
100
AcDbEntity
  8
DATA
  6
Continuous
 62
     7
100
AcDbCircle
 10
-775.0029028073834
 20
-384.3815714479931
 30
0.0
 40
18.38187895912881
100
AcDbArc
 50
9.018973460077216
 51
89.66858381920264
  0
LINE
  5
267
330
3BD
100
AcDbEntity
  8
DATA
  6
Continuous
 62
     7
100
AcDbLine
 10
-774.8965770325903
 20
-366.0
 30
0.0
 11
-774.8965770325903
 21
-985.6340629072914
 31
0.0
  0
LINE
  5
268
330
3BD
100
AcDbEntity
  8
DATA
  6
Continuous
 62
     7
100
AcDbLine
 10
-854.2055359096021
 20
-1047.657694675916
 30
0.0
 11
-771.2828319727779
 21
-1008.990202795255
 31
0.0
  0
ARC
  5
269
330
3BD
100
AcDbEntity
  8
DATA
  6
Continuous
 62
     7
100
AcDbCircle
 10
-781.8482885162959
 20
-986.3325081193393
 30
0.0
 40
25.00000000000016
100
AcDbArc
 50
295.0000000000009
 51
0.0
  0
LINE
  5
26A
330
3BD
100
AcDbEntity
  8
DATA
  6
Continuous
 62
     7
100
AcDbLine
 10
-858.8141483746573
 20
-1032.728847337958
 30
0.0
 11
-782.1138487608319
 21
-996.962910245249
 31
0.0
  0
ARC
  5
26B
330
3BD
100
AcDbEntity
  8
DATA
  6
Continuous
 62
     7
100
AcDbCircle
 10
-787.3965770325901
 20
-985.6340629072905
 30
0.0
 40
12.50000000000001
100
AcDbArc
 50
294.9999999999966
 51
359.999999999998
  0
LINE
  5
26C
330
3BD
100
AcDbEntity
  8
DATA
  6
Continuous
 62
     7
100
AcDbLine
 10
-774.8965770325903
 20
-985.6340629072914
 30
0.0
 11
-756.8482885162953
 21
-985.6340629072914
 31
0.0
  0
LINE
  5
26D
330
3BD
100
AcDbEntity
  8
DATA
  6
Continuous
 62
     7
100
AcDbLine
 10
-782.1138487608319
 20
-996.962910245249
 30
0.0
 11
-775.5726417507884
 21
-1010.99057394677
 31
0.0
  0
ARC
  5
26E
330
3BD
100
AcDbEntity
  8
DATA
  6
Continuous
 62
     7
100
AcDbCircle
 10
-864.0968766464158
 20
-1021.4
 30
0.0
 40
12.5
100
AcDbArc
 50
270.0
 51
294.9999999999993
  0
ARC
  5
26F
330
3BD
100
AcDbEntity
  8
DATA
  6
Continuous
 62
     7
100
AcDbCircle
 10
-864.77099245312
 20
-1025.0
 30
0.0
 40
25.0
100
AcDbArc
 50
270.000000000001
 51
295.0000000000011
  0
LINE
  5
270
330
3BD
100
AcDbEntity
  8
DATA
  6
Continuous
 62
     7
100
AcDbLine
 10
-854.2055359096021
 20
-1047.657694675916
 30
0.0
 11
-858.8141483746573
 21
-1032.728847337958
 31
0.0
  0
LINE
  5
271
330
3BD
100
AcDbEntity
  8
DATA
  6
Continuous
 62
     7
100
AcDbLine
 10
-864.0968766464158
 20
-1033.9
 30
0.0
 11
-864.7709924531197
 21
-1050.0
 31
0.0
  0
CIRCLE
  5
272
330
3BD
100
AcDbEntity
  8
DATA
  6
Continuous
 62
     7
100
AcDbCircle
 10
-1100.0
 20
-761.71
 30
0.0
 40
9.0
  0
CIRCLE
  5
273
330
3BD
100
AcDbEntity
  8
DATA
  6
Continuous
 62
     7
100
AcDbCircle
 10
-1100.0
 20
-761.71
 30
0.0
 40
11.40000000000009
  0
CIRCLE
  5
274
330
3BD
100
AcDbEntity
  8
DATA
  6
Continuous
 62
     7
100
AcDbCircle
 10
-1100.0
 20
-761.71
 30
0.0
 40
51.9000000000001
  0
CIRCLE
  5
275
330
3BD
100
AcDbEntity
  8
DATA
  6
Continuous
 62
     7
100
AcDbCircle
 10
-1100.0
 20
-761.71
 30
0.0
 40
50.9000000000001
  0
CIRCLE
  5
276
330
3BD
100
AcDbEntity
  8
DATA
  6
Continuous
 62
     7
100
AcDbCircle
 10
-1100.0
 20
-721.1
 30
0.0
 40
6.599999999999909
  0
LINE
  5
277
330
3BD
100
AcDbEntity
  8
DATA
  6
Continuous
 62
     7
100
AcDbLine
 10
-1103.299999999999
 20
-721.1
 30
0.0
 11
-1096.7
 21
-721.1
 31
0.0
  0
LINE
  5
278
330
3BD
100
AcDbEntity
  8
DATA
  6
Continuous
 62
     7
100
AcDbLine
 10
-1100.0
 20
-724.3999999999999
 30
0.0
 11
-1100.0
 21
-717.8000000000001
 31
0.0
  0
CIRCLE
  5
279
330
3BD
100
AcDbEntity
  8
DATA
  6
Continuous
 62
     7
100
AcDbCircle
 10
-1064.830708352314
 20
-782.0149999999999
 30
0.0
 40
6.600000000000001
  0
LINE
  5
27A
330
3BD
100
AcDbEntity
  8
DATA
  6
Continuous
 62
     7
100
AcDbLine
 10
-1066.480708352314
 20
-784.8728838324883
 30
0.0
 11
-1063.180708352314
 21
-779.1571161675109
 31
0.0
  0
LINE
  5
27B
330
3BD
100
AcDbEntity
  8
DATA
  6
Continuous
 62
     7
100
AcDbLine
 10
-1067.688592184802
 20
-780.3649999999999
 30
0.0
 11
-1061.972824519825
 21
-783.6649999999999
 31
0.0
  0
CIRCLE
  5
27C
330
3BD
100
AcDbEntity
  8
DATA
  6
Continuous
 62
     7
100
AcDbCircle
 10
-1135.169291647686
 20
-782.0149999999999
 30
0.0
 40
6.600000000000001
  0
LINE
  5
27D
330
3BD
100
AcDbEntity
  8
DATA
  6
Continuous
 62
     7
100
AcDbLine
 10
-1133.519291647686
 20
-784.8728838324883
 30
0.0
 11
-1136.819291647686
 21
-779.1571161675109
 31
0.0
  0
LINE
  5
27E
330
3BD
100
AcDbEntity
  8
DATA
  6
Continuous
 62
     7
100
AcDbLine
 10
-1132.311407815197
 20
-780.3649999999999
 30
0.0
 11
-1138.027175480174
 21
-783.6649999999999
 31
0.0
  0
CIRCLE
  5
27F
330
3BD
100
AcDbEntity
  8
DATA
  6
Continuous
 62
     7
100
AcDbCircle
 10
-804.3440000000002
 20
-433.3199999999997
 30
0.0
 40
20.0999999999999
  0
CIRCLE
  5
280
330
3BD
100
AcDbEntity
  8
DATA
  6
Continuous
 62
     7
100
AcDbCircle
 10
-804.3440000000002
 20
-929.3499999999999
 30
0.0
 40
20.0999999999999
  0
CIRCLE
  5
281
330
3BD
100
AcDbEntity
  8
DATA
  6
Continuous
 62
     7
100
AcDbCircle
 10
-1395.656
 20
-433.3199999999997
 30
0.0
 40
20.0999999999999
  0
CIRCLE
  5
282
330
3BD
100
AcDbEntity
  8
DATA
  6
Continuous
 62
     7
100
AcDbCircle
 10
-1395.656
 20
-929.3499999999999
 30
0.0
 40
20.0999999999999
  0
LINE
  5
283
330
3BD
100
AcDbEntity
  8
DATA
  6
Continuous
 62
     7
100
AcDbLine
 10
26.04828851629509
 20
-1131.0
 30
0.0
 11
673.9517114837049
 21
-1131.0
 31
0.0
  0
LINE
  5
284
330
3BD
100
AcDbEntity
  8
DATA
  6
Continuous
 62
     7
100
AcDbLine
 10
26.04828851629509
 20
-1700.0
 30
0.0
 11
673.9517114837049
 21
-1700.0
 31
0.0
  0
LINE
  5
285
330
3BD
100
AcDbEntity
  8
DATA
  6
Continuous
 62
     7
100
AcDbLine
 10
8.0
 20
-1149.0
 30
0.0
 11
692.0
 21
-1149.0
 31
0.0
  0
LINE
  5
286
330
3BD
100
AcDbEntity
  8
DATA
  6
Continuous
 62
     7
100
AcDbLine
 10
692.0
 20
-1684.5
 30
0.0
 11
692.0
 21
-1146.5
 31
0.0
  0
ARC
  5
287
330
3BD
100
AcDbEntity
  8
DATA
  6
Continuous
 62
     7
100
AcDbCircle
 10
673.8453857089121
 20
-1149.381571447992
 30
0.0
 40
18.38187895912877
100
AcDbArc
 50
9.018973460076514
 51
89.66858381920264
  0
ARC
  5
288
330
3BD
100
AcDbEntity
  8
DATA
  6
Continuous
 62
     7
100
AcDbCircle
 10
673.8453857089121
 20
-1681.618428552007
 30
0.0
 40
18.38187895912853
100
AcDbArc
 50
270.3314161807973
 51
350.9810265399234
  0
LINE
  5
289
330
3BD
100
AcDbEntity
  8
DATA
  6
Continuous
 62
     7
100
AcDbLine
 10
8.0
 20
-1682.0
 30
0.0
 11
692.0
 21
-1682.0
 31
0.0
  0
ARC
  5
28A
330
3BD
100
AcDbEntity
  8
DATA
  6
Continuous
 62
     7
100
AcDbCircle
 10
26.15461429108791
 20
-1149.381571447992
 30
0.0
 40
18.38187895912853
100
AcDbArc
 50
90.33141618079735
 51
170.9810265399235
  0
ARC
  5
28B
330
3BD
100
AcDbEntity
  8
DATA
  6
Continuous
 62
     7
100
AcDbCircle
 10
26.15461429108791
 20
-1681.618428552007
 30
0.0
 40
18.38187895912877
100
AcDbArc
 50
189.0189734600765
 51
269.6685838192026
  0
LINE
  5
28C
330
3BD
100
AcDbEntity
  8
DATA
  6
Continuous
 62
     7
100
AcDbLine
 10
627.156
 20
-1704.799999999999
 30
0.0
 11
627.156
 21
-1700.0
 31
0.0
  0
LINE
  5
28D
330
3BD
100
AcDbEntity
  8
DATA
  6
Continuous
 62
     7
100
AcDbLine
 10
664.1559999999999
 20
-1704.799999999999
 30
0.0
 11
664.1559999999999
 21
-1700.0
 31
0.0
  0
LINE
  5
28E
330
3BD
100
AcDbEntity
  8
DATA
  6
Continuous
 62
     7
100
AcDbLine
 10
629.1559999999999
 20
-1706.799999999999
 30
0.0
 11
662.1559999999999
 21
-1706.799999999999
 31
0.0
  0
ARC
  5
28F
330
3BD
100
AcDbEntity
  8
DATA
  6
Continuous
 62
     7
100
AcDbCircle
 10
629.1559999999999
 20
-1704.799999999999
 30
0.0
 40
2.0
100
AcDbArc
 50
180.0
 51
270.0
  0
ARC
  5
290
330
3BD
100
AcDbEntity
  8
DATA
  6
Continuous
 62
     7
100
AcDbCircle
 10
662.1559999999999
 20
-1704.799999999999
 30
0.0
 40
2.0
100
AcDbArc
 50
270.0
 51
0.0
  0
LINE
  5
291
330
3BD
100
AcDbEntity
  8
DATA
  6
Continuous
 62
     7
100
AcDbLine
 10
664.1559999999999
 20
-1704.799999999999
 30
0.0
 11
627.156
 21
-1704.799999999999
 31
0.0
  0
LINE
  5
292
330
3BD
100
AcDbEntity
  8
DATA
  6
Continuous
 62
     7
100
AcDbLine
 10
72.84400000000005
 20
-1704.799999999999
 30
0.0
 11
72.84400000000005
 21
-1700.0
 31
0.0
  0
LINE
  5
293
330
3BD
100
AcDbEntity
  8
DATA
  6
Continuous
 62
     7
100
AcDbLine
 10
35.84400000000005
 20
-1704.799999999999
 30
0.0
 11
35.84400000000005
 21
-1700.0
 31
0.0
  0
LINE
  5
294
330
3BD
100
AcDbEntity
  8
DATA
  6
Continuous
 62
     7
100
AcDbLine
 10
70.84400000000005
 20
-1706.799999999999
 30
0.0
 11
37.84400000000005
 21
-1706.799999999999
 31
0.0
  0
ARC
  5
295
330
3BD
100
AcDbEntity
  8
DATA
  6
Continuous
 62
     7
100
AcDbCircle
 10
70.84400000000005
 20
-1704.799999999999
 30
0.0
 40
2.0
100
AcDbArc
 50
270.0
 51
0.0
  0
ARC
  5
296
330
3BD
100
AcDbEntity
  8
DATA
  6
Continuous
 62
     7
100
AcDbCircle
 10
37.84400000000005
 20
-1704.799999999999
 30
0.0
 40
2.0
100
AcDbArc
 50
180.0
 51
270.0
  0
LINE
  5
297
330
3BD
100
AcDbEntity
  8
DATA
  6
Continuous
 62
     7
100
AcDbLine
 10
35.84400000000005
 20
-1704.799999999999
 30
0.0
 11
72.84400000000005
 21
-1704.799999999999
 31
0.0
  0
LINE
  5
298
330
3BD
100
AcDbEntity
  8
DATA
  6
Continuous
 62
     7
100
AcDbLine
 10
8.0
 20
-1146.5
 30
0.0
 11
8.0
 21
-1684.5
 31
0.0
  0
LINE
  5
299
330
3BD
100
AcDbEntity
  8
DATA
  6
Continuous
 62
     7
100
AcDbLine
 10
26.04828851629509
 20
-1131.0
 30
0.0
 11
26.04828851629509
 21
-1700.0
 31
0.0
  0
LINE
  5
29A
330
3BD
100
AcDbEntity
  8
DATA
  6
Continuous
 62
     7
100
AcDbLine
 10
673.9517114837049
 20
-1700.0
 30
0.0
 11
673.9517114837049
 21
-1131.0
 31
0.0
  0
CIRCLE
  5
29B
330
3BD
100
AcDbEntity
  8
DATA
  6
Continuous
 62
     7
100
AcDbCircle
 10
44.50000000000045
 20
-1190.0
 30
0.0
 40
8.699999999999818
  0
LINE
  5
29C
330
3BD
100
AcDbEntity
  8
DATA
  6
Continuous
 62
     7
100
AcDbLine
 10
48.8499999999999
 20
-1190.0
 30
0.0
 11
40.1500000000001
 21
-1190.0
 31
0.0
  0
LINE
  5
29D
330
3BD
100
AcDbEntity
  8
DATA
  6
Continuous
 62
     7
100
AcDbLine
 10
44.50000000000045
 20
-1194.349999999999
 30
0.0
 11
44.50000000000045
 21
-1185.65
 31
0.0
  0
CIRCLE
  5
29E
330
3BD
100
AcDbEntity
  8
DATA
  6
Continuous
 62
     7
100
AcDbCircle
 10
122.4999999999995
 20
-1190.0
 30
0.0
 40
8.699999999999818
  0
LINE
  5
29F
330
3BD
100
AcDbEntity
  8
DATA
  6
Continuous
 62
     7
100
AcDbLine
 10
118.1500000000001
 20
-1190.0
 30
0.0
 11
126.8499999999999
 21
-1190.0
 31
0.0
  0
LINE
  5
2A0
330
3BD
100
AcDbEntity
  8
DATA
  6
Continuous
 62
     7
100
AcDbLine
 10
122.4999999999995
 20
-1194.349999999999
 30
0.0
 11
122.4999999999995
 21
-1185.65
 31
0.0
  0
CIRCLE
  5
2A1
330
3BD
100
AcDbEntity
  8
DATA
  6
Continuous
 62
     7
100
AcDbCircle
 10
122.4999999999995
 20
-1254.5
 30
0.0
 40
8.699999999999818
  0
LINE
  5
2A2
330
3BD
100
AcDbEntity
  8
DATA
  6
Continuous
 62
     7
100
AcDbLine
 10
118.1500000000001
 20
-1254.5
 30
0.0
 11
126.8499999999999
 21
-1254.5
 31
0.0
  0
LINE
  5
2A3
330
3BD
100
AcDbEntity
  8
DATA
  6
Continuous
 62
     7
100
AcDbLine
 10
122.4999999999995
 20
-1250.15
 30
0.0
 11
122.4999999999995
 21
-1258.849999999999
 31
0.0
  0
CIRCLE
  5
2A4
330
3BD
100
AcDbEntity
  8
DATA
  6
Continuous
 62
     7
100
AcDbCircle
 10
44.50000000000045
 20
-1254.5
 30
0.0
 40
8.699999999999818
  0
LINE
  5
2A5
330
3BD
100
AcDbEntity
  8
DATA
  6
Continuous
 62
     7
100
AcDbLine
 10
48.8499999999999
 20
-1254.5
 30
0.0
 11
40.1500000000001
 21
-1254.5
 31
0.0
  0
LINE
  5
2A6
330
3BD
100
AcDbEntity
  8
DATA
  6
Continuous
 62
     7
100
AcDbLine
 10
44.50000000000045
 20
-1250.15
 30
0.0
 11
44.50000000000045
 21
-1258.849999999999
 31
0.0
  0
ARC
  5
2A7
330
3BD
100
AcDbEntity
  8
DATA
  6
Continuous
 62
     7
100
AcDbCircle
 10
-47.87796915402213
 20
-1189.69
 30
0.0
 40
11.0903768954746
100
AcDbArc
 50
308.3288798781323
 51
51.6711201218647
  0
ARC
  5
2A8
330
3BD
100
AcDbEntity
  8
DATA
  6
Continuous
 62
     7
100
AcDbCircle
 10
-47.87796915402213
 20
-1254.174
 30
0.0
 40
11.09037689547388
100
AcDbArc
 50
308.3288798781353
 51
51.6711201218676
  0
ARC
  5
2A9
330
3BD
100
AcDbEntity
  8
DATA
  6
Continuous
 62
     7
100
AcDbCircle
 10
-47.87796915402213
 20
-1641.31
 30
0.0
 40
11.09037689547388
100
AcDbArc
 50
308.3288798781353
 51
51.6711201218676
  0
ARC
  5
2AA
330
3BD
100
AcDbEntity
  8
DATA
  6
Continuous
 62
     7
100
AcDbCircle
 10
-47.87796915402213
 20
-1576.826
 30
0.0
 40
11.0903768954746
100
AcDbArc
 50
308.3288798781323
 51
51.6711201218647
  0
ARC
  5
2AB
330
3BD
100
AcDbEntity
  8
DATA
  6
Continuous
 62
     7
100
AcDbCircle
 10
-1325.922
 20
-372.8779691540221
 30
0.0
 40
11.0903768954746
100
AcDbArc
 50
38.32887987813239
 51
141.6711201218646
  0
ARC
  5
2AC
330
3BD
100
AcDbEntity
  8
DATA
  6
Continuous
 62
     7
100
AcDbCircle
 10
-1405.678
 20
-372.8779691540221
 30
0.0
 40
11.0903768954746
100
AcDbArc
 50
38.32887987813239
 51
141.6711201218646
  0
ARC
  5
2AD
330
3BD
100
AcDbEntity
  8
DATA
  6
Continuous
 62
     7
100
AcDbCircle
 10
-874.0779999999999
 20
-372.8779691540221
 30
0.0
 40
11.09037689547388
100
AcDbArc
 50
38.3288798781353
 51
141.6711201218676
  0
ARC
  5
2AE
330
3BD
100
AcDbEntity
  8
DATA
  6
Continuous
 62
     7
100
AcDbCircle
 10
-794.3219999999996
 20
-372.8779691540221
 30
0.0
 40
11.09037689547388
100
AcDbArc
 50
38.3288798781353
 51
141.6711201218676
  0
CIRCLE
  5
2AF
330
3BD
100
AcDbEntity
  8
DATA
  6
Continuous
 62
     7
100
AcDbCircle
 10
655.4999999999997
 20
-1190.0
 30
0.0
 40
8.699999999999818
  0
LINE
  5
2B0
330
3BD
100
AcDbEntity
  8
DATA
  6
Continuous
 62
     7
100
AcDbLine
 10
651.1500000000002
 20
-1190.0
 30
0.0
 11
659.8499999999997
 21
-1190.0
 31
0.0
  0
LINE
  5
2B1
330
3BD
100
AcDbEntity
  8
DATA
  6
Continuous
 62
     7
100
AcDbLine
 10
655.4999999999997
 20
-1194.349999999999
 30
0.0
 11
655.4999999999997
 21
-1185.65
 31
0.0
  0
CIRCLE
  5
2B2
330
3BD
100
AcDbEntity
  8
DATA
  6
Continuous
 62
     7
100
AcDbCircle
 10
577.5000000000005
 20
-1190.0
 30
0.0
 40
8.699999999999818
  0
LINE
  5
2B3
330
3BD
100
AcDbEntity
  8
DATA
  6
Continuous
 62
     7
100
AcDbLine
 10
581.8499999999998
 20
-1190.0
 30
0.0
 11
573.1500000000002
 21
-1190.0
 31
0.0
  0
LINE
  5
2B4
330
3BD
100
AcDbEntity
  8
DATA
  6
Continuous
 62
     7
100
AcDbLine
 10
577.5000000000005
 20
-1194.349999999999
 30
0.0
 11
577.5000000000005
 21
-1185.65
 31
0.0
  0
CIRCLE
  5
2B5
330
3BD
100
AcDbEntity
  8
DATA
  6
Continuous
 62
     7
100
AcDbCircle
 10
577.5000000000005
 20
-1254.5
 30
0.0
 40
8.699999999999818
  0
LINE
  5
2B6
330
3BD
100
AcDbEntity
  8
DATA
  6
Continuous
 62
     7
100
AcDbLine
 10
581.8499999999998
 20
-1254.5
 30
0.0
 11
573.1500000000002
 21
-1254.5
 31
0.0
  0
LINE
  5
2B7
330
3BD
100
AcDbEntity
  8
DATA
  6
Continuous
 62
     7
100
AcDbLine
 10
577.5000000000005
 20
-1250.15
 30
0.0
 11
577.5000000000005
 21
-1258.849999999999
 31
0.0
  0
CIRCLE
  5
2B8
330
3BD
100
AcDbEntity
  8
DATA
  6
Continuous
 62
     7
100
AcDbCircle
 10
655.4999999999997
 20
-1254.5
 30
0.0
 40
8.699999999999818
  0
LINE
  5
2B9
330
3BD
100
AcDbEntity
  8
DATA
  6
Continuous
 62
     7
100
AcDbLine
 10
651.1500000000002
 20
-1254.5
 30
0.0
 11
659.8499999999997
 21
-1254.5
 31
0.0
  0
LINE
  5
2BA
330
3BD
100
AcDbEntity
  8
DATA
  6
Continuous
 62
     7
100
AcDbLine
 10
655.4999999999997
 20
-1250.15
 30
0.0
 11
655.4999999999997
 21
-1258.849999999999
 31
0.0
  0
CIRCLE
  5
2BB
330
3BD
100
AcDbEntity
  8
DATA
  6
Continuous
 62
     7
100
AcDbCircle
 10
44.50000000000045
 20
-1641.0
 30
0.0
 40
8.699999999999818
  0
LINE
  5
2BC
330
3BD
100
AcDbEntity
  8
DATA
  6
Continuous
 62
     7
100
AcDbLine
 10
48.8499999999999
 20
-1641.0
 30
0.0
 11
40.1500000000001
 21
-1641.0
 31
0.0
  0
LINE
  5
2BD
330
3BD
100
AcDbEntity
  8
DATA
  6
Continuous
 62
     7
100
AcDbLine
 10
44.50000000000045
 20
-1636.65
 30
0.0
 11
44.50000000000045
 21
-1645.349999999999
 31
0.0
  0
CIRCLE
  5
2BE
330
3BD
100
AcDbEntity
  8
DATA
  6
Continuous
 62
     7
100
AcDbCircle
 10
122.4999999999995
 20
-1641.0
 30
0.0
 40
8.699999999999818
  0
LINE
  5
2BF
330
3BD
100
AcDbEntity
  8
DATA
  6
Continuous
 62
     7
100
AcDbLine
 10
118.1500000000001
 20
-1641.0
 30
0.0
 11
126.8499999999999
 21
-1641.0
 31
0.0
  0
LINE
  5
2C0
330
3BD
100
AcDbEntity
  8
DATA
  6
Continuous
 62
     7
100
AcDbLine
 10
122.4999999999995
 20
-1636.65
 30
0.0
 11
122.4999999999995
 21
-1645.349999999999
 31
0.0
  0
CIRCLE
  5
2C1
330
3BD
100
AcDbEntity
  8
DATA
  6
Continuous
 62
     7
100
AcDbCircle
 10
122.4999999999995
 20
-1576.5
 30
0.0
 40
8.699999999999818
  0
LINE
  5
2C2
330
3BD
100
AcDbEntity
  8
DATA
  6
Continuous
 62
     7
100
AcDbLine
 10
118.1500000000001
 20
-1576.5
 30
0.0
 11
126.8499999999999
 21
-1576.5
 31
0.0
  0
LINE
  5
2C3
330
3BD
100
AcDbEntity
  8
DATA
  6
Continuous
 62
     7
100
AcDbLine
 10
122.4999999999995
 20
-1580.849999999999
 30
0.0
 11
122.4999999999995
 21
-1572.15
 31
0.0
  0
CIRCLE
  5
2C4
330
3BD
100
AcDbEntity
  8
DATA
  6
Continuous
 62
     7
100
AcDbCircle
 10
44.50000000000045
 20
-1576.5
 30
0.0
 40
8.699999999999818
  0
LINE
  5
2C5
330
3BD
100
AcDbEntity
  8
DATA
  6
Continuous
 62
     7
100
AcDbLine
 10
48.8499999999999
 20
-1576.5
 30
0.0
 11
40.1500000000001
 21
-1576.5
 31
0.0
  0
LINE
  5
2C6
330
3BD
100
AcDbEntity
  8
DATA
  6
Continuous
 62
     7
100
AcDbLine
 10
44.50000000000045
 20
-1580.849999999999
 30
0.0
 11
44.50000000000045
 21
-1572.15
 31
0.0
  0
CIRCLE
  5
2C7
330
3BD
100
AcDbEntity
  8
DATA
  6
Continuous
 62
     7
100
AcDbCircle
 10
655.4999999999997
 20
-1641.0
 30
0.0
 40
8.699999999999818
  0
LINE
  5
2C8
330
3BD
100
AcDbEntity
  8
DATA
  6
Continuous
 62
     7
100
AcDbLine
 10
651.1500000000002
 20
-1641.0
 30
0.0
 11
659.8499999999997
 21
-1641.0
 31
0.0
  0
LINE
  5
2C9
330
3BD
100
AcDbEntity
  8
DATA
  6
Continuous
 62
     7
100
AcDbLine
 10
655.4999999999997
 20
-1636.65
 30
0.0
 11
655.4999999999997
 21
-1645.349999999999
 31
0.0
  0
CIRCLE
  5
2CA
330
3BD
100
AcDbEntity
  8
DATA
  6
Continuous
 62
     7
100
AcDbCircle
 10
577.5000000000005
 20
-1641.0
 30
0.0
 40
8.699999999999818
  0
LINE
  5
2CB
330
3BD
100
AcDbEntity
  8
DATA
  6
Continuous
 62
     7
100
AcDbLine
 10
581.8499999999998
 20
-1641.0
 30
0.0
 11
573.1500000000002
 21
-1641.0
 31
0.0
  0
LINE
  5
2CC
330
3BD
100
AcDbEntity
  8
DATA
  6
Continuous
 62
     7
100
AcDbLine
 10
577.5000000000005
 20
-1636.65
 30
0.0
 11
577.5000000000005
 21
-1645.349999999999
 31
0.0
  0
CIRCLE
  5
2CD
330
3BD
100
AcDbEntity
  8
DATA
  6
Continuous
 62
     7
100
AcDbCircle
 10
577.5000000000005
 20
-1576.5
 30
0.0
 40
8.699999999999818
  0
LINE
  5
2CE
330
3BD
100
AcDbEntity
  8
DATA
  6
Continuous
 62
     7
100
AcDbLine
 10
581.8499999999998
 20
-1576.5
 30
0.0
 11
573.1500000000002
 21
-1576.5
 31
0.0
  0
LINE
  5
2CF
330
3BD
100
AcDbEntity
  8
DATA
  6
Continuous
 62
     7
100
AcDbLine
 10
577.5000000000005
 20
-1580.849999999999
 30
0.0
 11
577.5000000000005
 21
-1572.15
 31
0.0
  0
CIRCLE
  5
2D0
330
3BD
100
AcDbEntity
  8
DATA
  6
Continuous
 62
     7
100
AcDbCircle
 10
655.4999999999997
 20
-1576.5
 30
0.0
 40
8.699999999999818
  0
LINE
  5
2D1
330
3BD
100
AcDbEntity
  8
DATA
  6
Continuous
 62
     7
100
AcDbLine
 10
651.1500000000002
 20
-1576.5
 30
0.0
 11
659.8499999999997
 21
-1576.5
 31
0.0
  0
LINE
  5
2D2
330
3BD
100
AcDbEntity
  8
DATA
  6
Continuous
 62
     7
100
AcDbLine
 10
655.4999999999997
 20
-1580.849999999999
 30
0.0
 11
655.4999999999997
 21
-1572.15
 31
0.0
  0
LINE
  5
2D3
330
3BD
100
AcDbEntity
  8
DATA
  6
STYLE_06
 62
     7
100
AcDbLine
 10
-1100.0
 20
-350.0
 30
0.0
 11
-1100.0
 21
-1075.0
 31
0.0
  0
LINE
  5
2D4
330
3BD
100
AcDbEntity
  8
DATA
  6
Continuous
 62
     7
100
AcDbLine
 10
306.25
 20
-1439.200000000002
 30
0.0
 11
393.75
 21
-1439.200000000002
 31
0.0
  0
LINE
  5
2D5
330
3BD
100
AcDbEntity
  8
DATA
  6
Continuous
 62
     7
100
AcDbLine
 10
304.25
 20
-1441.200000000002
 30
0.0
 11
304.25
 21
-1604.799999999998
 31
0.0
  0
LINE
  5
2D6
330
3BD
100
AcDbEntity
  8
DATA
  6
Continuous
 62
     7
100
AcDbLine
 10
286.75
 20
-1431.4
 30
0.0
 11
286.75
 21
-1614.6
 31
0.0
  0
LINE
  5
2D7
330
3BD
100
AcDbEntity
  8
DATA
  6
Continuous
 62
     7
100
AcDbLine
 10
403.2499999999999
 20
-1421.4
 30
0.0
 11
296.75
 21
-1421.4
 31
0.0
  0
ARC
  5
2D8
330
3BD
100
AcDbEntity
  8
DATA
  6
Continuous
 62
     7
100
AcDbCircle
 10
296.75
 20
-1431.4
 30
0.0
 40
10.0
100
AcDbArc
 50
90.0
 51
180.0
  0
CIRCLE
  5
2D9
330
3BD
100
AcDbEntity
  8
DATA
  6
Continuous
 62
     7
100
AcDbCircle
 10
298.75
 20
-1431.625000000001
 30
0.0
 40
4.850000000000363
  0
ARC
  5
2DA
330
3BD
100
AcDbEntity
  8
DATA
  6
Continuous
 62
     7
100
AcDbCircle
 10
306.25
 20
-1441.200000000002
 30
0.0
 40
2.0
100
AcDbArc
 50
90.0
 51
180.0
  0
LINE
  5
2DB
330
3BD
100
AcDbEntity
  8
DATA
  6
Continuous
 62
     7
100
AcDbLine
 10
296.3249999999998
 20
-1431.625000000001
 30
0.0
 11
301.1750000000002
 21
-1431.625000000001
 31
0.0
  0
LINE
  5
2DC
330
3BD
100
AcDbEntity
  8
DATA
  6
Continuous
 62
     7
100
AcDbLine
 10
298.75
 20
-1434.05
 30
0.0
 11
298.75
 21
-1429.2
 31
0.0
  0
CIRCLE
  5
2DD
330
3BD
100
AcDbEntity
  8
DATA
  6
Continuous
 62
     7
100
AcDbCircle
 10
295.25
 20
-1523.0
 30
0.0
 40
4.850000000000363
  0
LINE
  5
2DE
330
3BD
100
AcDbEntity
  8
DATA
  6
Continuous
 62
     7
100
AcDbLine
 10
292.8249999999998
 20
-1523.0
 30
0.0
 11
297.6750000000002
 21
-1523.0
 31
0.0
  0
LINE
  5
2DF
330
3BD
100
AcDbEntity
  8
DATA
  6
Continuous
 62
     7
100
AcDbLine
 10
295.25
 20
-1525.425
 30
0.0
 11
295.25
 21
-1520.575
 31
0.0
  0
LINE
  5
2E0
330
3BD
100
AcDbEntity
  8
DATA
  6
Continuous
 62
     7
100
AcDbLine
 10
395.75
 20
-1441.200000000002
 30
0.0
 11
395.75
 21
-1604.799999999998
 31
0.0
  0
LINE
  5
2E1
330
3BD
100
AcDbEntity
  8
DATA
  6
Continuous
 62
     7
100
AcDbLine
 10
413.25
 20
-1431.4
 30
0.0
 11
413.25
 21
-1614.6
 31
0.0
  0
ARC
  5
2E2
330
3BD
100
AcDbEntity
  8
DATA
  6
Continuous
 62
     7
100
AcDbCircle
 10
403.2499999999999
 20
-1431.4
 30
0.0
 40
10.0
100
AcDbArc
 50
0.0
 51
90.0
  0
CIRCLE
  5
2E3
330
3BD
100
AcDbEntity
  8
DATA
  6
Continuous
 62
     7
100
AcDbCircle
 10
401.25
 20
-1431.625000000001
 30
0.0
 40
4.850000000000363
  0
ARC
  5
2E4
330
3BD
100
AcDbEntity
  8
DATA
  6
Continuous
 62
     7
100
AcDbCircle
 10
393.75
 20
-1441.200000000002
 30
0.0
 40
2.0
100
AcDbArc
 50
0.0
 51
90.0
  0
LINE
  5
2E5
330
3BD
100
AcDbEntity
  8
DATA
  6
Continuous
 62
     7
100
AcDbLine
 10
403.6750000000001
 20
-1431.625000000001
 30
0.0
 11
398.8249999999999
 21
-1431.625000000001
 31
0.0
  0
LINE
  5
2E6
330
3BD
100
AcDbEntity
  8
DATA
  6
Continuous
 62
     7
100
AcDbLine
 10
401.25
 20
-1434.05
 30
0.0
 11
401.25
 21
-1429.2
 31
0.0
  0
CIRCLE
  5
2E7
330
3BD
100
AcDbEntity
  8
DATA
  6
Continuous
 62
     7
100
AcDbCircle
 10
404.75
 20
-1523.0
 30
0.0
 40
4.850000000000363
  0
LINE
  5
2E8
330
3BD
100
AcDbEntity
  8
DATA
  6
Continuous
 62
     7
100
AcDbLine
 10
407.1750000000001
 20
-1523.0
 30
0.0
 11
402.3249999999999
 21
-1523.0
 31
0.0
  0
LINE
  5
2E9
330
3BD
100
AcDbEntity
  8
DATA
  6
Continuous
 62
     7
100
AcDbLine
 10
404.75
 20
-1525.425
 30
0.0
 11
404.75
 21
-1520.575
 31
0.0
  0
LINE
  5
2EA
330
3BD
100
AcDbEntity
  8
DATA
  6
Continuous
 62
     7
100
AcDbLine
 10
306.25
 20
-1606.799999999998
 30
0.0
 11
393.75
 21
-1606.799999999998
 31
0.0
  0
LINE
  5
2EB
330
3BD
100
AcDbEntity
  8
DATA
  6
Continuous
 62
     7
100
AcDbLine
 10
403.2499999999999
 20
-1624.6
 30
0.0
 11
296.75
 21
-1624.6
 31
0.0
  0
ARC
  5
2EC
330
3BD
100
AcDbEntity
  8
DATA
  6
Continuous
 62
     7
100
AcDbCircle
 10
296.75
 20
-1614.6
 30
0.0
 40
10.0
100
AcDbArc
 50
180.0
 51
270.0
  0
CIRCLE
  5
2ED
330
3BD
100
AcDbEntity
  8
DATA
  6
Continuous
 62
     7
100
AcDbCircle
 10
298.75
 20
-1614.374999999998
 30
0.0
 40
4.850000000000363
  0
ARC
  5
2EE
330
3BD
100
AcDbEntity
  8
DATA
  6
Continuous
 62
     7
100
AcDbCircle
 10
306.25
 20
-1604.799999999998
 30
0.0
 40
2.0
100
AcDbArc
 50
180.0
 51
270.0
  0
LINE
  5
2EF
330
3BD
100
AcDbEntity
  8
DATA
  6
Continuous
 62
     7
100
AcDbLine
 10
296.3249999999998
 20
-1614.374999999998
 30
0.0
 11
301.1750000000002
 21
-1614.374999999998
 31
0.0
  0
LINE
  5
2F0
330
3BD
100
AcDbEntity
  8
DATA
  6
Continuous
 62
     7
100
AcDbLine
 10
298.75
 20
-1611.949999999999
 30
0.0
 11
298.75
 21
-1616.799999999999
 31
0.0
  0
ARC
  5
2F1
330
3BD
100
AcDbEntity
  8
DATA
  6
Continuous
 62
     7
100
AcDbCircle
 10
403.2499999999999
 20
-1614.6
 30
0.0
 40
10.0
100
AcDbArc
 50
270.0
 51
0.0
  0
CIRCLE
  5
2F2
330
3BD
100
AcDbEntity
  8
DATA
  6
Continuous
 62
     7
100
AcDbCircle
 10
401.25
 20
-1614.374999999998
 30
0.0
 40
4.850000000000363
  0
ARC
  5
2F3
330
3BD
100
AcDbEntity
  8
DATA
  6
Continuous
 62
     7
100
AcDbCircle
 10
393.75
 20
-1604.799999999998
 30
0.0
 40
2.0
100
AcDbArc
 50
270.0
 51
0.0
  0
LINE
  5
2F4
330
3BD
100
AcDbEntity
  8
DATA
  6
Continuous
 62
     7
100
AcDbLine
 10
403.6750000000001
 20
-1614.374999999998
 30
0.0
 11
398.8249999999999
 21
-1614.374999999998
 31
0.0
  0
LINE
  5
2F5
330
3BD
100
AcDbEntity
  8
DATA
  6
Continuous
 62
     7
100
AcDbLine
 10
401.25
 20
-1611.949999999999
 30
0.0
 11
401.25
 21
-1616.799999999999
 31
0.0
  0
CIRCLE
  5
2F6
330
3BD
100
AcDbEntity
  8
DATA
  6
Continuous
 62
     7
100
AcDbCircle
 10
350.0
 20
-1471.429717106697
 30
0.0
 40
6.095999999999548
  0
CIRCLE
  5
2F7
330
3BD
100
AcDbEntity
  8
DATA
  6
Continuous
 62
     7
100
AcDbCircle
 10
350.0
 20
-1471.429717106697
 30
0.0
 40
3.301999999999679
  0
LINE
  5
2F8
330
3BD
100
AcDbEntity
  8
DATA
  6
Continuous
 62
     7
100
AcDbLine
 10
348.60299995682
 20
-1481.493214538717
 30
0.0
 11
348.60299995682
 21
-1480.209267159956
 31
0.0
  0
ARC
  5
2F9
330
3BD
100
AcDbEntity
  8
DATA
  6
Continuous
 62
     7
100
AcDbCircle
 10
350.0
 20
-1471.429717106697
 30
0.0
 40
10.16000000000004
100
AcDbArc
 50
262.0967922665004
 51
277.9032077334997
  0
LINE
  5
2FA
330
3BD
100
AcDbEntity
  8
DATA
  6
Continuous
 62
     7
100
AcDbLine
 10
351.3970000457202
 20
-1480.209267159956
 30
0.0
 11
351.3970000457202
 21
-1481.493214538717
 31
0.0
  0
ARC
  5
2FB
330
3BD
100
AcDbEntity
  8
DATA
  6
Continuous
 62
     7
100
AcDbCircle
 10
350.0
 20
-1471.429717106697
 30
0.0
 40
8.889999999999837
100
AcDbArc
 50
279.0410961485986
 51
73.3984504009982
  0
LINE
  5
2FC
330
3BD
100
AcDbEntity
  8
DATA
  6
Continuous
 62
     7
100
AcDbLine
 10
352.5400000177797
 20
-1461.592339400237
 30
0.0
 11
352.5400000177797
 21
-1462.910298125757
 31
0.0
  0
ARC
  5
2FD
330
3BD
100
AcDbEntity
  8
DATA
  6
Continuous
 62
     7
100
AcDbCircle
 10
350.0
 20
-1471.429717106697
 30
0.0
 40
10.16000000000003
100
AcDbArc
 50
75.5224878141021
 51
104.4775121858979
  0
LINE
  5
2FE
330
3BD
100
AcDbEntity
  8
DATA
  6
Continuous
 62
     7
100
AcDbLine
 10
347.4599999847605
 20
-1462.910298125757
 30
0.0
 11
347.4599999847605
 21
-1461.592339400237
 31
0.0
  0
ARC
  5
2FF
330
3BD
100
AcDbEntity
  8
DATA
  6
Continuous
 62
     7
100
AcDbCircle
 10
350.0
 20
-1471.429717106697
 30
0.0
 40
8.890000000000128
100
AcDbArc
 50
106.6015495990014
 51
260.9589038514016
  0
CIRCLE
  5
300
330
3BD
100
AcDbEntity
  8
DATA
  6
Continuous
 62
     7
100
AcDbCircle
 10
350.0
 20
-1471.429717106697
 30
0.0
 40
12.02971710669675
  0
CIRCLE
  5
301
330
3BD
100
AcDbEntity
  8
DATA
  6
Continuous
 62
     7
100
AcDbCircle
 10
350.0
 20
-1510.489151320091
 30
0.0
 40
6.095999999999548
  0
CIRCLE
  5
302
330
3BD
100
AcDbEntity
  8
DATA
  6
Continuous
 62
     7
100
AcDbCircle
 10
350.0
 20
-1510.489151320091
 30
0.0
 40
3.301999999999679
  0
LINE
  5
303
330
3BD
100
AcDbEntity
  8
DATA
  6
Continuous
 62
     7
100
AcDbLine
 10
348.60299995682
 20
-1520.552648752111
 30
0.0
 11
348.60299995682
 21
-1519.26870137335
 31
0.0
  0
ARC
  5
304
330
3BD
100
AcDbEntity
  8
DATA
  6
Continuous
 62
     7
100
AcDbCircle
 10
350.0
 20
-1510.489151320091
 30
0.0
 40
10.16000000000004
100
AcDbArc
 50
262.0967922665004
 51
277.9032077334997
  0
LINE
  5
305
330
3BD
100
AcDbEntity
  8
DATA
  6
Continuous
 62
     7
100
AcDbLine
 10
351.3970000457202
 20
-1519.26870137335
 30
0.0
 11
351.3970000457202
 21
-1520.552648752111
 31
0.0
  0
ARC
  5
306
330
3BD
100
AcDbEntity
  8
DATA
  6
Continuous
 62
     7
100
AcDbCircle
 10
350.0
 20
-1510.489151320091
 30
0.0
 40
8.889999999999837
100
AcDbArc
 50
279.0410961485986
 51
73.3984504009982
  0
LINE
  5
307
330
3BD
100
AcDbEntity
  8
DATA
  6
Continuous
 62
     7
100
AcDbLine
 10
352.5400000177797
 20
-1500.651773613631
 30
0.0
 11
352.5400000177797
 21
-1501.969732339151
 31
0.0
  0
ARC
  5
308
330
3BD
100
AcDbEntity
  8
DATA
  6
Continuous
 62
     7
100
AcDbCircle
 10
350.0
 20
-1510.489151320091
 30
0.0
 40
10.16000000000003
100
AcDbArc
 50
75.5224878141021
 51
104.4775121858979
  0
LINE
  5
309
330
3BD
100
AcDbEntity
  8
DATA
  6
Continuous
 62
     7
100
AcDbLine
 10
347.4599999847605
 20
-1501.969732339151
 30
0.0
 11
347.4599999847605
 21
-1500.651773613631
 31
0.0
  0
ARC
  5
30A
330
3BD
100
AcDbEntity
  8
DATA
  6
Continuous
 62
     7
100
AcDbCircle
 10
350.0
 20
-1510.489151320091
 30
0.0
 40
8.890000000000128
100
AcDbArc
 50
106.6015495990014
 51
260.9589038514016
  0
CIRCLE
  5
30B
330
3BD
100
AcDbEntity
  8
DATA
  6
Continuous
 62
     7
100
AcDbCircle
 10
350.0
 20
-1510.489151320091
 30
0.0
 40
12.02971710669675
  0
LINE
  5
30C
330
3BD
100
AcDbEntity
  8
DATA
  6
Continuous
 62
     7
100
AcDbLine
 10
342.5
 20
-1574.299999999998
 30
0.0
 11
357.5
 21
-1574.299999999998
 31
0.0
  0
LINE
  5
30D
330
3BD
100
AcDbEntity
  8
DATA
  6
Continuous
 62
     7
100
AcDbLine
 10
342.5
 20
-1549.899999999998
 30
0.0
 11
357.5
 21
-1549.899999999998
 31
0.0
  0
LINE
  5
30E
330
3BD
100
AcDbEntity
  8
DATA
  6
Continuous
 62
     7
100
AcDbLine
 10
345.3499999999999
 20
-1568.599999999998
 30
0.0
 11
354.6500000000001
 21
-1568.599999999998
 31
0.0
  0
LINE
  5
30F
330
3BD
100
AcDbEntity
  8
DATA
  6
Continuous
 62
     7
100
AcDbLine
 10
345.3499999999999
 20
-1565.399999999998
 30
0.0
 11
354.6500000000001
 21
-1565.399999999998
 31
0.0
  0
LINE
  5
310
330
3BD
100
AcDbEntity
  8
DATA
  6
Continuous
 62
     7
100
AcDbLine
 10
340.5
 20
-1572.299999999998
 30
0.0
 11
340.5
 21
-1551.899999999998
 31
0.0
  0
LINE
  5
311
330
3BD
100
AcDbEntity
  8
DATA
  6
Continuous
 62
     7
100
AcDbLine
 10
359.5
 20
-1572.299999999998
 30
0.0
 11
359.5
 21
-1551.899999999998
 31
0.0
  0
LINE
  5
312
330
3BD
100
AcDbEntity
  8
DATA
  6
Continuous
 62
     7
100
AcDbLine
 10
345.3499999999999
 20
-1568.599999999998
 30
0.0
 11
345.3499999999999
 21
-1565.399999999998
 31
0.0
  0
LINE
  5
313
330
3BD
100
AcDbEntity
  8
DATA
  6
Continuous
 62
     7
100
AcDbLine
 10
354.6500000000001
 20
-1568.599999999998
 30
0.0
 11
354.6500000000001
 21
-1565.399999999998
 31
0.0
  0
ARC
  5
314
330
3BD
100
AcDbEntity
  8
DATA
  6
Continuous
 62
     7
100
AcDbCircle
 10
342.5
 20
-1551.899999999998
 30
0.0
 40
2.0
100
AcDbArc
 50
90.0
 51
180.0
  0
ARC
  5
315
330
3BD
100
AcDbEntity
  8
DATA
  6
Continuous
 62
     7
100
AcDbCircle
 10
357.5
 20
-1551.899999999998
 30
0.0
 40
2.0
100
AcDbArc
 50
0.0
 51
90.0
  0
ARC
  5
316
330
3BD
100
AcDbEntity
  8
DATA
  6
Continuous
 62
     7
100
AcDbCircle
 10
357.5
 20
-1572.299999999998
 30
0.0
 40
2.0
100
AcDbArc
 50
270.0
 51
0.0
  0
ARC
  5
317
330
3BD
100
AcDbEntity
  8
DATA
  6
Continuous
 62
     7
100
AcDbCircle
 10
342.5
 20
-1572.299999999998
 30
0.0
 40
2.0
100
AcDbArc
 50
180.0
 51
270.0
  0
TEXT
  5
318
330
3BD
100
AcDbEntity
  8
DATA
 62
     7
100
AcDbText
 10
340.4006510416666
 20
-1493.429427083333
 30
0.0
 40
4.6171875
  1
IN/THRU
 41
0.7
 72
     1
 11
350.6354166666666
 21
-1491.120833333333
 31
0.0
100
AcDbText
 73
     2
  0
LINE
  5
319
330
3BD
100
AcDbEntity
  8
DATA
  6
Continuous
 62
     7
100
AcDbLine
 10
350.0
 20
-1483.459434213393
 30
0.0
 11
350.0
 21
-1487.475
 31
0.0
  0
LINE
  5
31A
330
3BD
100
AcDbEntity
  8
DATA
  6
Continuous
 62
     7
100
AcDbLine
 10
350.0
 20
-1498.459434213393
 30
0.0
 11
350.0
 21
-1494.225
 31
0.0
  0
TEXT
  5
31B
330
3BD
100
AcDbEntity
  8
DATA
 62
     7
100
AcDbText
 10
342.6630729166666
 20
-1547.804427083333
 30
0.0
 40
4.6171875
  1
NL4 ±1
 41
0.7
 72
     1
 11
350.6354166666666
 21
-1545.495833333333
 31
0.0
100
AcDbText
 73
     2
  0
TEXT
  5
31C
330
3BD
100
AcDbEntity
  8
DATA
 62
     7
100
AcDbText
 10
342.1244010416667
 20
-1580.554427083333
 30
0.0
 40
4.6171875
  1
NL4 ±2
 41
0.7
 72
     1
 11
350.6354166666666
 21
-1578.245833333333
 31
0.0
100
AcDbText
 73
     2
  0
TEXT
  5
31D
330
3BD
100
AcDbEntity
  8
DATA
 62
     7
100
AcDbText
 10
311.4622039634192
 20
-1564.09994441143
 30
0.0
 40
4.6171875
  1
INPUT:8Ω
 41
0.7
 11
311.4622039634192
 21
-1561.791350661431
 31
0.0
100
AcDbText
 73
     2
  0
TEXT
  5
31E
330
3BD
100
AcDbEntity
  8
DATA
 62
     7
100
AcDbText
 10
1000.00000002
 20
-2327.382200006137
 30
0.0
 40
48.86523437500001
  1
SRX818S Passive
 41
0.7
 11
1000.00000002
 21
-2278.516965631137
 31
0.0
100
AcDbText
 73
     3
  0
LINE
  5
31F
330
3BD
100
AcDbEntity
  8
DATA
  6
Continuous
 62
     7
100
AcDbLine
 10
834.0
 20
307.8617101671415
 30
0.0
 11
834.0
 21
-742.1382898328584
 31
0.0
  0
LINE
  5
320
330
3BD
100
AcDbEntity
  8
DATA
  6
Continuous
 62
     7
100
AcDbLine
 10
1566.0
 20
292.1382898328585
 30
0.0
 11
1566.0
 21
-757.8617101671416
 31
0.0
  0
CIRCLE
  5
321
330
3BD
100
AcDbEntity
  8
DATA
  6
Continuous
 62
     7
100
AcDbCircle
 10
1200.0
 20
172.9622631464081
 30
0.0
 40
48.7679999999964
  0
CIRCLE
  5
322
330
3BD
100
AcDbEntity
  8
DATA
  6
Continuous
 62
     7
100
AcDbCircle
 10
1200.0
 20
172.9622631464081
 30
0.0
 40
26.41599999999744
  0
LINE
  5
323
330
3BD
100
AcDbEntity
  8
DATA
  6
Continuous
 62
     7
100
AcDbLine
 10
1188.82399965456
 20
92.45428369024557
 30
0.0
 11
1188.82399965456
 21
102.7258627203282
 31
0.0
  0
ARC
  5
324
330
3BD
100
AcDbEntity
  8
DATA
  6
Continuous
 62
     7
100
AcDbCircle
 10
1200.0
 20
172.9622631464081
 30
0.0
 40
81.2800000000003
100
AcDbArc
 50
262.0967922665004
 51
277.9032077334997
  0
LINE
  5
325
330
3BD
100
AcDbEntity
  8
DATA
  6
Continuous
 62
     7
100
AcDbLine
 10
1211.176000365762
 20
102.7258627203282
 30
0.0
 11
1211.176000365762
 21
92.45428369024557
 31
0.0
  0
ARC
  5
326
330
3BD
100
AcDbEntity
  8
DATA
  6
Continuous
 62
     7
100
AcDbCircle
 10
1200.0
 20
172.9622631464081
 30
0.0
 40
71.1199999999987
100
AcDbArc
 50
279.0410961485986
 51
73.39845040099804
  0
LINE
  5
327
330
3BD
100
AcDbEntity
  8
DATA
  6
Continuous
 62
     7
100
AcDbLine
 10
1220.320000142237
 20
251.6612847980814
 30
0.0
 11
1220.320000142237
 21
241.1176149939238
 31
0.0
  0
ARC
  5
328
330
3BD
100
AcDbEntity
  8
DATA
  6
Continuous
 62
     7
100
AcDbCircle
 10
1200.0
 20
172.9622631464081
 30
0.0
 40
81.28000000000024
100
AcDbArc
 50
75.5224878141021
 51
104.4775121858979
  0
LINE
  5
329
330
3BD
100
AcDbEntity
  8
DATA
  6
Continuous
 62
     7
100
AcDbLine
 10
1179.679999878084
 20
241.1176149939238
 30
0.0
 11
1179.679999878084
 21
251.6612847980814
 31
0.0
  0
ARC
  5
32A
330
3BD
100
AcDbEntity
  8
DATA
  6
Continuous
 62
     7
100
AcDbCircle
 10
1200.0
 20
172.9622631464081
 30
0.0
 40
71.12000000000103
100
AcDbArc
 50
106.6015495990014
 51
260.9589038514016
  0
CIRCLE
  5
32B
330
3BD
100
AcDbEntity
  8
DATA
  6
Continuous
 62
     7
100
AcDbCircle
 10
1200.0
 20
172.9622631464081
 30
0.0
 40
96.237736853574
  0
CIRCLE
  5
32C
330
3BD
100
AcDbEntity
  8
DATA
  6
Continuous
 62
     7
100
AcDbCircle
 10
1200.0
 20
-139.5132105607408
 30
0.0
 40
48.7679999999964
  0
CIRCLE
  5
32D
330
3BD
100
AcDbEntity
  8
DATA
  6
Continuous
 62
     7
100
AcDbCircle
 10
1200.0
 20
-139.5132105607408
 30
0.0
 40
26.41599999999744
  0
LINE
  5
32E
330
3BD
100
AcDbEntity
  8
DATA
  6
Continuous
 62
     7
100
AcDbLine
 10
1188.82399965456
 20
-220.0211900169033
 30
0.0
 11
1188.82399965456
 21
-209.7496109868207
 31
0.0
  0
ARC
  5
32F
330
3BD
100
AcDbEntity
  8
DATA
  6
Continuous
 62
     7
100
AcDbCircle
 10
1200.0
 20
-139.5132105607408
 30
0.0
 40
81.2800000000003
100
AcDbArc
 50
262.0967922665004
 51
277.9032077334997
  0
LINE
  5
330
330
3BD
100
AcDbEntity
  8
DATA
  6
Continuous
 62
     7
100
AcDbLine
 10
1211.176000365762
 20
-209.7496109868207
 30
0.0
 11
1211.176000365762
 21
-220.0211900169033
 31
0.0
  0
ARC
  5
331
330
3BD
100
AcDbEntity
  8
DATA
  6
Continuous
 62
     7
100
AcDbCircle
 10
1200.0
 20
-139.5132105607408
 30
0.0
 40
71.1199999999987
100
AcDbArc
 50
279.0410961485986
 51
73.39845040099804
  0
LINE
  5
332
330
3BD
100
AcDbEntity
  8
DATA
  6
Continuous
 62
     7
100
AcDbLine
 10
1220.320000142237
 20
-60.81418890906753
 30
0.0
 11
1220.320000142237
 21
-71.35785871322514
 31
0.0
  0
ARC
  5
333
330
3BD
100
AcDbEntity
  8
DATA
  6
Continuous
 62
     7
100
AcDbCircle
 10
1200.0
 20
-139.5132105607408
 30
0.0
 40
81.28000000000024
100
AcDbArc
 50
75.5224878141021
 51
104.4775121858979
  0
LINE
  5
334
330
3BD
100
AcDbEntity
  8
DATA
  6
Continuous
 62
     7
100
AcDbLine
 10
1179.679999878084
 20
-71.35785871322514
 30
0.0
 11
1179.679999878084
 21
-60.81418890906753
 31
0.0
  0
ARC
  5
335
330
3BD
100
AcDbEntity
  8
DATA
  6
Continuous
 62
     7
100
AcDbCircle
 10
1200.0
 20
-139.5132105607408
 30
0.0
 40
71.12000000000103
100
AcDbArc
 50
106.6015495990014
 51
260.9589038514016
  0
CIRCLE
  5
336
330
3BD
100
AcDbEntity
  8
DATA
  6
Continuous
 62
     7
100
AcDbCircle
 10
1200.0
 20
-139.5132105607408
 30
0.0
 40
96.237736853574
  0
LINE
  5
337
330
3BD
100
AcDbEntity
  8
DATA
  6
Continuous
 62
     7
100
AcDbLine
 10
1140.0
 20
-650.0
 30
0.0
 11
1260.0
 21
-650.0
 31
0.0
  0
LINE
  5
338
330
3BD
100
AcDbEntity
  8
DATA
  6
Continuous
 62
     7
100
AcDbLine
 10
1140.0
 20
-454.7999999999992
 30
0.0
 11
1260.0
 21
-454.7999999999992
 31
0.0
  0
LINE
  5
339
330
3BD
100
AcDbEntity
  8
DATA
  6
Continuous
 62
     7
100
AcDbLine
 10
1162.799999999999
 20
-604.3999999999996
 30
0.0
 11
1237.2
 21
-604.3999999999996
 31
0.0
  0
LINE
  5
33A
330
3BD
100
AcDbEntity
  8
DATA
  6
Continuous
 62
     7
100
AcDbLine
 10
1162.799999999999
 20
-578.7999999999993
 30
0.0
 11
1237.2
 21
-578.7999999999993
 31
0.0
  0
LINE
  5
33B
330
3BD
100
AcDbEntity
  8
DATA
  6
Continuous
 62
     7
100
AcDbLine
 10
1124.0
 20
-634.0
 30
0.0
 11
1124.0
 21
-470.7999999999992
 31
0.0
  0
LINE
  5
33C
330
3BD
100
AcDbEntity
  8
DATA
  6
Continuous
 62
     7
100
AcDbLine
 10
1276.0
 20
-634.0
 30
0.0
 11
1276.0
 21
-470.7999999999992
 31
0.0
  0
LINE
  5
33D
330
3BD
100
AcDbEntity
  8
DATA
  6
Continuous
 62
     7
100
AcDbLine
 10
1162.799999999999
 20
-604.3999999999996
 30
0.0
 11
1162.799999999999
 21
-578.7999999999993
 31
0.0
  0
LINE
  5
33E
330
3BD
100
AcDbEntity
  8
DATA
  6
Continuous
 62
     7
100
AcDbLine
 10
1237.2
 20
-604.3999999999996
 30
0.0
 11
1237.2
 21
-578.7999999999993
 31
0.0
  0
ARC
  5
33F
330
3BD
100
AcDbEntity
  8
DATA
  6
Continuous
 62
     7
100
AcDbCircle
 10
1140.0
 20
-470.7999999999992
 30
0.0
 40
16.0
100
AcDbArc
 50
90.0
 51
180.0
  0
ARC
  5
340
330
3BD
100
AcDbEntity
  8
DATA
  6
Continuous
 62
     7
100
AcDbCircle
 10
1260.0
 20
-470.7999999999992
 30
0.0
 40
16.0
100
AcDbArc
 50
0.0
 51
90.0
  0
ARC
  5
341
330
3BD
100
AcDbEntity
  8
DATA
  6
Continuous
 62
     7
100
AcDbCircle
 10
1260.0
 20
-634.0
 30
0.0
 40
16.0
100
AcDbArc
 50
270.0
 51
0.0
  0
ARC
  5
342
330
3BD
100
AcDbEntity
  8
DATA
  6
Continuous
 62
     7
100
AcDbCircle
 10
1140.0
 20
-634.0
 30
0.0
 40
16.0
100
AcDbArc
 50
180.0
 51
270.0
  0
TEXT
  5
343
330
3BD
100
AcDbEntity
  8
DATA
 62
     7
100
AcDbText
 10
1123.205208333332
 20
-3.035416666682069
 30
0.0
 40
36.9375
  1
IN/THRU
 41
0.7
 72
     1
 11
1205.083333333332
 21
15.43333333331793
 31
0.0
100
AcDbText
 73
     2
  0
LINE
  5
344
330
3BD
100
AcDbEntity
  8
DATA
  6
Continuous
 62
     7
100
AcDbLine
 10
1200.0
 20
76.72452629283363
 30
0.0
 11
1200.0
 21
44.59999999998398
 31
0.0
  0
LINE
  5
345
330
3BD
100
AcDbEntity
  8
DATA
  6
Continuous
 62
     7
100
AcDbLine
 10
1200.0
 20
-43.27547370716638
 30
0.0
 11
1200.0
 21
-9.400000000016008
 31
0.0
  0
TEXT
  5
346
330
3BD
100
AcDbEntity
  8
DATA
 62
     7
100
AcDbText
 10
1141.304583333332
 20
-438.035416666682
 30
0.0
 40
36.9375
  1
NL4 ±1
 41
0.7
 72
     1
 11
1205.083333333332
 21
-419.566666666682
 31
0.0
100
AcDbText
 73
     2
  0
TEXT
  5
347
330
3BD
100
AcDbEntity
  8
DATA
 62
     7
100
AcDbText
 10
1136.995208333332
 20
-700.0354166666822
 30
0.0
 40
36.9375
  1
NL4 ±2
 41
0.7
 72
     1
 11
1205.083333333332
 21
-681.5666666666821
 31
0.0
100
AcDbText
 73
     2
  0
TEXT
  5
348
330
3BD
100
AcDbEntity
  8
DATA
 62
     7
100
AcDbText
 10
891.697631707353
 20
-568.3995552914621
 30
0.0
 40
36.9375
  1
INPUT:8Ω
 41
0.7
 11
891.697631707353
 21
-549.9308052914621
 31
0.0
100
AcDbText
 73
     2
  0
ARC
  5
349
330
3BD
100
AcDbEntity
  8
DATA
  6
Continuous
 62
     7
100
AcDbCircle
 10
1000.0
 20
-487.5
 30
0.0
 40
812.5
100
AcDbArc
 50
75.74996730219641
 51
101.7889750239804
  0
ARC
  5
34A
330
3BD
100
AcDbEntity
  8
DATA
  6
Continuous
 62
     7
100
AcDbCircle
 10
1400.0
 20
1087.5
 30
0.0
 40
812.5
100
AcDbArc
 50
255.7499673021964
 51
281.7889750239805
  0
ARC
  5
34B
330
3BD
100
AcDbEntity
  8
DATA
  6
Continuous
 62
     7
100
AcDbCircle
 10
1000.0
 20
-1537.5
 30
0.0
 40
812.5
100
AcDbArc
 50
75.74996730219641
 51
101.7889750239804
  0
ARC
  5
34C
330
3BD
100
AcDbEntity
  8
DATA
  6
Continuous
 62
     7
100
AcDbCircle
 10
1400.0
 20
37.5
 30
0.0
 40
812.5
100
AcDbArc
 50
255.7499673021964
 51
281.7889750239805
  0
ENDSEC
  0
SECTION
  2
OBJECTS
  0
DICTIONARY
  5
35A
330
0
100
AcDbDictionary
281
     1
  3
ACAD_CIP_PREVIOUS_PRODUCT_INFO
350
3D7
  3
ACAD_COLOR
350
3B0
  3
ACAD_DETAILVIEWSTYLE
350
3B7
  3
ACAD_GROUP
350
35B
  3
ACAD_LAYOUT
350
3AF
  3
ACAD_MATERIAL
350
35E
  3
ACAD_MLEADERSTYLE
350
3B3
  3
ACAD_MLINESTYLE
350
3AC
  3
ACAD_PLOTSETTINGS
350
3AE
  3
ACAD_PLOTSTYLENAME
350
35C
  3
ACAD_SCALELIST
350
390
  3
ACAD_SECTIONVIEWSTYLE
350
3B5
  3
ACAD_TABLESTYLE
350
3B1
  3
ACAD_VISUALSTYLE
350
377
  3
ACDB_RECOMPOSE_DATA
350
3EF
  3
AcDbVariableDictionary
350
3E2
  3
DWGPROPS
350
3F0
  0
DICTIONARY
  5
3D8
330
3A2
100
AcDbDictionary
280
     1
281
     1
  3
ADSK_XREC_LAYER_RECONCILED
360
3D9
  0
DICTIONARY
  5
3DA
330
3C1
100
AcDbDictionary
280
     1
281
     1
  3
ADSK_XREC_LAYER_RECONCILED
360
3DB
  0
DICTIONARY
  5
3DC
330
3CF
100
AcDbDictionary
280
     1
281
     1
  3
ADSK_XREC_LAYER_RECONCILED
360
3DD
  0
DICTIONARY
  5
3DE
330
3D0
100
AcDbDictionary
280
     1
281
     1
  3
ADSK_XREC_LAYER_RECONCILED
360
3DF
  0
DICTIONARY
  5
3E0
330
3D1
100
AcDbDictionary
280
     1
281
     1
  3
ADSK_XREC_LAYER_RECONCILED
360
3E1
  0
XRECORD
  5
3D7
102
{ACAD_REACTORS
330
35A
102
}
330
35A
100
AcDbXrecord
280
     1
300
ACDLT
300
2018
300
ACDLT_F_S
  0
DICTIONARY
  5
3B0
102
{ACAD_REACTORS
330
35A
102
}
330
35A
100
AcDbDictionary
281
     1
  0
DICTIONARY
  5
3B7
102
{ACAD_REACTORS
330
35A
102
}
330
35A
100
AcDbDictionary
281
     1
  3
Imperial24
350
3B8
  0
DICTIONARY
  5
35B
102
{ACAD_REACTORS
330
35A
102
}
330
35A
100
AcDbDictionary
281
     1
  0
DICTIONARY
  5
3AF
102
{ACAD_REACTORS
330
35A
102
}
330
35A
100
AcDbDictionary
281
     1
  3
Model
350
3C0
  3
レイアウト1
350
3BC
  0
DICTIONARY
  5
35E
102
{ACAD_REACTORS
330
35A
102
}
330
35A
100
AcDbDictionary
281
     1
  3
ByBlock
350
367
  3
ByLayer
350
35F
  3
Global
350
36F
  0
DICTIONARY
  5
3B3
102
{ACAD_REACTORS
330
35A
102
}
330
35A
100
AcDbDictionary
281
     1
  3
Standard
350
3B4
  0
DICTIONARY
  5
3AC
102
{ACAD_REACTORS
330
35A
102
}
330
35A
100
AcDbDictionary
281
     1
  3
Standard
350
3AD
  0
DICTIONARY
  5
3AE
102
{ACAD_REACTORS
330
35A
102
}
330
35A
100
AcDbDictionary
281
     1
  0
ACDBDICTIONARYWDFLT
  5
35C
102
{ACAD_REACTORS
330
35A
102
}
330
35A
100
AcDbDictionary
281
     1
  3
Normal
350
35D
100
AcDbDictionaryWithDefault
340
35D
  0
DICTIONARY
  5
390
102
{ACAD_REACTORS
330
35A
102
}
330
35A
100
AcDbDictionary
281
     1
  3
A0
350
391
  3
A1
350
392
  3
A2
350
393
  3
A3
350
394
  3
A4
350
395
  3
A5
350
396
  3
A6
350
397
  3
A7
350
398
  3
A8
350
399
  3
A9
350
39A
  3
B0
350
39B
  3
B1
350
39C
  3
B2
350
39D
  3
B3
350
39E
  3
B4
350
39F
  3
B5
350
3A0
  3
B6
350
3A1
  0
DICTIONARY
  5
3B5
102
{ACAD_REACTORS
330
35A
102
}
330
35A
100
AcDbDictionary
281
     1
  3
Imperial24
350
3B6
  0
DICTIONARY
  5
3B1
102
{ACAD_REACTORS
330
35A
102
}
330
35A
100
AcDbDictionary
281
     1
  3
Standard
350
3B2
  0
DICTIONARY
  5
377
102
{ACAD_REACTORS
330
35A
102
}
330
35A
100
AcDbDictionary
281
     1
  3
2dWireframe
350
37D
  3
Basic
350
37C
  3
Brighten
350
383
  3
ColorChange
350
387
  3
Conceptual
350
380
  3
Dim
350
382
  3
EdgeColorOff
350
38F
  3
Facepattern
350
386
  3
Flat
350
378
  3
FlatWithEdges
350
379
  3
Gouraud
350
37A
  3
GouraudWithEdges
350
37B
  3
Hidden
350
37F
  3
JitterOff
350
38D
  3
Linepattern
350
385
  3
OverhangOff
350
38E
  3
Realistic
350
381
  3
Shaded
350
38C
  3
Shaded with edges
350
38B
  3
Shades of Gray
350
388
  3
Sketchy
350
389
  3
Thicken
350
384
  3
Wireframe
350
37E
  3
X-Ray
350
38A
  0
XRECORD
  5
3EF
102
{ACAD_REACTORS
330
35A
102
}
330
35A
100
AcDbXrecord
280
     1
 90
        1
330
3B2
  0
DICTIONARY
  5
3E2
102
{ACAD_REACTORS
330
35A
102
}
330
35A
100
AcDbDictionary
281
     1
  3
CANNOSCALE
350
3E7
  3
CMLEADERSTYLE
350
3E4
  3
CTABLESTYLE
350
3E3
  3
CVIEWDETAILSTYLE
350
3E5
  3
CVIEWSECTIONSTYLE
350
3E6
  3
DIMASSOC
350
3EA
  3
INDEXCTL
350
3E9
  3
SORTENTS
350
3E8
  3
XCLIPFRAME
350
3EB
  0
XRECORD
  5
3F0
102
{ACAD_REACTORS
330
35A
102
}
330
35A
100
AcDbXrecord
280
     1
  1
DWGPROPS COOKIE
  2

  3

  4

  6

  7

  8
sasaki_n
  9

300
=
301
=
302
=
303
=
304
=
305
=
306
=
307
=
308
=
309
=
 40
0.0004398148148148
 41
2457899.656759259
 42
2457899.657268519
  1

 90
        0
  0
XRECORD
  5
3D9
102
{ACAD_REACTORS
330
3D8
102
}
330
3D8
100
AcDbXrecord
280
     1
290
     1
  0
XRECORD
  5
3DB
102
{ACAD_REACTORS
330
3DA
102
}
330
3DA
100
AcDbXrecord
280
     1
290
     1
  0
XRECORD
  5
3DD
102
{ACAD_REACTORS
330
3DC
102
}
330
3DC
100
AcDbXrecord
280
     1
290
     1
  0
XRECORD
  5
3DF
102
{ACAD_REACTORS
330
3DE
102
}
330
3DE
100
AcDbXrecord
280
     1
290
     1
  0
XRECORD
  5
3E1
102
{ACAD_REACTORS
330
3E0
102
}
330
3E0
100
AcDbXrecord
280
     1
290
     1
  0
ACDBDETAILVIEWSTYLE
  5
3B8
102
{ACAD_XDICTIONARY
360
428
102
}
102
{ACAD_REACTORS
330
3B7
102
}
330
3B7
100
AcDbModelDocViewStyle
 70
     0
  3
Imperial24
290
     0
100
AcDbDetailViewStyle
 70
     0
 71
     0
 90
        3
 71
     1
340
3A3
 40
0.24
340
0
 40
0.24
300

 40
0.36
280
     3
 71
     2
340
3AA
 90
       25
 71
     3
340
3A3
 40
0.24
 90
        1
 40
0.75
 90
        1
300
%<\AcVar ViewType \f "%tc1">% %<\AcVar ViewDetailId>%\PSCALE %<\AcVar ViewScale \f "%sn">%
 71
     4
340
3AA
 90
       25
340
3AA
 90
       25
280
     0
  0
LAYOUT
  5
3C0
102
{ACAD_XDICTIONARY
360
42C
102
}
102
{ACAD_REACTORS
330
3AF
102
}
330
3AF
100
AcDbPlotSettings
  1

  2
DocuPrint 3000-2
  4

  6

 40
0.0
 41
0.0
 42
0.0
 43
0.0
 44
0.0
 45
0.0
 46
0.0
 47
0.0
 48
0.0
 49
0.0
140
0.0
141
0.0
142
1.0
143
1.0
 70
  1712
 72
     0
 73
     0
 74
     0
  7

 75
     0
147
1.0
148
0.0
149
0.0
100
AcDbLayout
  1
Model
 70
     1
 71
     0
 10
0.0
 20
0.0
 11
12.0
 21
9.0
 12
0.0
 22
0.0
 32
0.0
 14
0.0
 24
0.0
 34
0.0
 15
0.0
 25
0.0
 35
0.0
146
0.0
 13
0.0
 23
0.0
 33
0.0
 16
1.0
 26
0.0
 36
0.0
 17
0.0
 27
1.0
 37
0.0
 76
     0
330
3BD
331
3C2
  0
LAYOUT
  5
3BC
102
{ACAD_XDICTIONARY
360
42A
102
}
102
{ACAD_REACTORS
330
3AF
102
}
330
3AF
100
AcDbPlotSettings
  1

  2
DocuPrint 3000-2
  4

  6

 40
0.0
 41
0.0
 42
0.0
 43
0.0
 44
0.0
 45
0.0
 46
0.0
 47
0.0
 48
0.0
 49
0.0
140
0.0
141
0.0
142
1.0
143
1.0
 70
   688
 72
     0
 73
     0
 74
     5
  7

 75
    16
147
1.0
148
0.0
149
0.0
100
AcDbLayout
  1
レイアウト1
 70
     0
 71
     1
 10
0.0
 20
0.0
 11
12.0
 21
9.0
 12
0.0
 22
0.0
 32
0.0
 14
1.000000000000000E+20
 24
1.000000000000000E+20
 34
1.000000000000000E+20
 15
-1.000000000000000E+20
 25
-1.000000000000000E+20
 35
-1.000000000000000E+20
146
0.0
 13
0.0
 23
0.0
 33
0.0
 16
1.0
 26
0.0
 36
0.0
 17
0.0
 27
1.0
 37
0.0
 76
     0
330
3B9
  0
MATERIAL
  5
367
102
{ACAD_XDICTIONARY
360
368
102
}
102
{ACAD_REACTORS
330
35E
102
}
330
35E
100
AcDbMaterial
  1
ByBlock
 72
     0
 43
0.0208333333333333
 43
0.0
 43
0.0
 43
0.0
 43
0.0
 43
0.0208333333333333
 43
0.0
 43
0.0
 43
0.0
 43
0.0
 43
1.0
 43
0.0
 43
0.0
 43
0.0
 43
0.0
 43
1.0
 77
     0
 47
0.0208333333333333
 47
0.0
 47
0.0
 47
0.0
 47
0.0
 47
0.0208333333333333
 47
0.0
 47
0.0
 47
0.0
 47
0.0
 47
1.0
 47
0.0
 47
0.0
 47
0.0
 47
0.0
 47
1.0
171
     0
 49
0.0208333333333333
 49
0.0
 49
0.0
 49
0.0
 49
0.0
 49
0.0208333333333333
 49
0.0
 49
0.0
 49
0.0
 49
0.0
 49
1.0
 49
0.0
 49
0.0
 49
0.0
 49
0.0
 49
1.0
175
     0
142
0.0208333333333333
142
0.0
142
0.0
142
0.0
142
0.0
142
0.0208333333333333
142
0.0
142
0.0
142
0.0
142
0.0
142
1.0
142
0.0
142
0.0
142
0.0
142
0.0
142
1.0
179
     0
144
0.0208333333333333
144
0.0
144
0.0
144
0.0
144
0.0
144
0.0208333333333333
144
0.0
144
0.0
144
0.0
144
0.0
144
1.0
144
0.0
144
0.0
144
0.0
144
0.0
144
1.0
147
0.0208333333333333
147
0.0
147
0.0
147
0.0
147
0.0
147
0.0208333333333333
147
0.0
147
0.0
147
0.0
147
0.0
147
1.0
147
0.0
147
0.0
147
0.0
147
0.0
147
1.0
  0
MATERIAL
  5
35F
102
{ACAD_XDICTIONARY
360
360
102
}
102
{ACAD_REACTORS
330
35E
102
}
330
35E
100
AcDbMaterial
  1
ByLayer
 72
     0
 43
0.0208333333333333
 43
0.0
 43
0.0
 43
0.0
 43
0.0
 43
0.0208333333333333
 43
0.0
 43
0.0
 43
0.0
 43
0.0
 43
1.0
 43
0.0
 43
0.0
 43
0.0
 43
0.0
 43
1.0
 77
     0
 47
0.0208333333333333
 47
0.0
 47
0.0
 47
0.0
 47
0.0
 47
0.0208333333333333
 47
0.0
 47
0.0
 47
0.0
 47
0.0
 47
1.0
 47
0.0
 47
0.0
 47
0.0
 47
0.0
 47
1.0
171
     0
 49
0.0208333333333333
 49
0.0
 49
0.0
 49
0.0
 49
0.0
 49
0.0208333333333333
 49
0.0
 49
0.0
 49
0.0
 49
0.0
 49
1.0
 49
0.0
 49
0.0
 49
0.0
 49
0.0
 49
1.0
175
     0
142
0.0208333333333333
142
0.0
142
0.0
142
0.0
142
0.0
142
0.0208333333333333
142
0.0
142
0.0
142
0.0
142
0.0
142
1.0
142
0.0
142
0.0
142
0.0
142
0.0
142
1.0
179
     0
144
0.0208333333333333
144
0.0
144
0.0
144
0.0
144
0.0
144
0.0208333333333333
144
0.0
144
0.0
144
0.0
144
0.0
144
1.0
144
0.0
144
0.0
144
0.0
144
0.0
144
1.0
147
0.0208333333333333
147
0.0
147
0.0
147
0.0
147
0.0
147
0.0208333333333333
147
0.0
147
0.0
147
0.0
147
0.0
147
1.0
147
0.0
147
0.0
147
0.0
147
0.0
147
1.0
  0
MATERIAL
  5
36F
102
{ACAD_XDICTIONARY
360
370
102
}
102
{ACAD_REACTORS
330
35E
102
}
330
35E
100
AcDbMaterial
  1
Global
 72
     0
 43
0.0208333333333333
 43
0.0
 43
0.0
 43
0.0
 43
0.0
 43
0.0208333333333333
 43
0.0
 43
0.0
 43
0.0
 43
0.0
 43
1.0
 43
0.0
 43
0.0
 43
0.0
 43
0.0
 43
1.0
 77
     0
 47
0.0208333333333333
 47
0.0
 47
0.0
 47
0.0
 47
0.0
 47
0.0208333333333333
 47
0.0
 47
0.0
 47
0.0
 47
0.0
 47
1.0
 47
0.0
 47
0.0
 47
0.0
 47
0.0
 47
1.0
171
     0
 49
0.0208333333333333
 49
0.0
 49
0.0
 49
0.0
 49
0.0
 49
0.0208333333333333
 49
0.0
 49
0.0
 49
0.0
 49
0.0
 49
1.0
 49
0.0
 49
0.0
 49
0.0
 49
0.0
 49
1.0
175
     0
142
0.0208333333333333
142
0.0
142
0.0
142
0.0
142
0.0
142
0.0208333333333333
142
0.0
142
0.0
142
0.0
142
0.0
142
1.0
142
0.0
142
0.0
142
0.0
142
0.0
142
1.0
179
     0
144
0.0208333333333333
144
0.0
144
0.0
144
0.0
144
0.0
144
0.0208333333333333
144
0.0
144
0.0
144
0.0
144
0.0
144
1.0
144
0.0
144
0.0
144
0.0
144
0.0
144
1.0
147
0.0208333333333333
147
0.0
147
0.0
147
0.0
147
0.0
147
0.0208333333333333
147
0.0
147
0.0
147
0.0
147
0.0
147
1.0
147
0.0
147
0.0
147
0.0
147
0.0
147
1.0
  0
MLEADERSTYLE
  5
3B4
102
{ACAD_REACTORS
330
3B3
102
}
330
3B3
100
AcDbMLeaderStyle
170
     2
171
     1
172
     0
 90
        2
 40
0.0
 41
0.0
173
     1
 91
-1056964608
340
3A8
 92
       -2
290
     1
 42
0.09
291
     1
 43
0.36
  3
Standard
 44
0.18
300

342
3A3
174
     1
178
     6
175
     1
176
     0
 93
-1056964608
 45
0.18
292
     0
297
     0
 46
0.18
 94
-1056964608
 47
1.0
 49
1.0
140
1.0
293
     1
141
0.0
294
     1
177
     0
142
1.0
295
     0
296
     0
143
0.125
1001
ACAD_MLEADERVER
1070
     2
  0
MLINESTYLE
  5
3AD
102
{ACAD_REACTORS
330
3AC
102
}
330
3AC
100
AcDbMlineStyle
  2
STANDARD
 70
     0
  3

 62
   256
 51
90.0
 52
90.0
 71
     2
 49
0.5
 62
   256
  6
BYLAYER
 49
-0.5
 62
   256
  6
BYLAYER
  0
ACDBPLACEHOLDER
  5
35D
102
{ACAD_REACTORS
330
35C
102
}
330
35C
  0
SCALE
  5
391
102
{ACAD_REACTORS
330
390
102
}
330
390
100
AcDbScale
 70
     0
300
1:1
140
1.0
141
1.0
290
     1
  0
SCALE
  5
392
102
{ACAD_REACTORS
330
390
102
}
330
390
100
AcDbScale
 70
     0
300
1/128" = 1'-0"
140
0.0078125
141
12.0
290
     0
  0
SCALE
  5
393
102
{ACAD_REACTORS
330
390
102
}
330
390
100
AcDbScale
 70
     0
300
1/64" = 1'-0"
140
0.015625
141
12.0
290
     0
  0
SCALE
  5
394
102
{ACAD_REACTORS
330
390
102
}
330
390
100
AcDbScale
 70
     0
300
1/32" = 1'-0"
140
0.03125
141
12.0
290
     0
  0
SCALE
  5
395
102
{ACAD_REACTORS
330
390
102
}
330
390
100
AcDbScale
 70
     0
300
1/16" = 1'-0"
140
0.0625
141
12.0
290
     0
  0
SCALE
  5
396
102
{ACAD_REACTORS
330
390
102
}
330
390
100
AcDbScale
 70
     0
300
3/32" = 1'-0"
140
0.09375
141
12.0
290
     0
  0
SCALE
  5
397
102
{ACAD_REACTORS
330
390
102
}
330
390
100
AcDbScale
 70
     0
300
1/8" = 1'-0"
140
0.125
141
12.0
290
     0
  0
SCALE
  5
398
102
{ACAD_REACTORS
330
390
102
}
330
390
100
AcDbScale
 70
     0
300
3/16" = 1'-0"
140
0.1875
141
12.0
290
     0
  0
SCALE
  5
399
102
{ACAD_REACTORS
330
390
102
}
330
390
100
AcDbScale
 70
     0
300
1/4" = 1'-0"
140
0.25
141
12.0
290
     0
  0
SCALE
  5
39A
102
{ACAD_REACTORS
330
390
102
}
330
390
100
AcDbScale
 70
     0
300
3/8" = 1'-0"
140
0.375
141
12.0
290
     0
  0
SCALE
  5
39B
102
{ACAD_REACTORS
330
390
102
}
330
390
100
AcDbScale
 70
     0
300
1/2" = 1'-0"
140
0.5
141
12.0
290
     0
  0
SCALE
  5
39C
102
{ACAD_REACTORS
330
390
102
}
330
390
100
AcDbScale
 70
     0
300
3/4" = 1'-0"
140
0.75
141
12.0
290
     0
  0
SCALE
  5
39D
102
{ACAD_REACTORS
330
390
102
}
330
390
100
AcDbScale
 70
     0
300
1" = 1'-0"
140
1.0
141
12.0
290
     0
  0
SCALE
  5
39E
102
{ACAD_REACTORS
330
390
102
}
330
390
100
AcDbScale
 70
     0
300
1-1/2" = 1'-0"
140
1.5
141
12.0
290
     0
  0
SCALE
  5
39F
102
{ACAD_REACTORS
330
390
102
}
330
390
100
AcDbScale
 70
     0
300
3" = 1'-0"
140
3.0
141
12.0
290
     0
  0
SCALE
  5
3A0
102
{ACAD_REACTORS
330
390
102
}
330
390
100
AcDbScale
 70
     0
300
6" = 1'-0"
140
6.0
141
12.0
290
     0
  0
SCALE
  5
3A1
102
{ACAD_REACTORS
330
390
102
}
330
390
100
AcDbScale
 70
     0
300
1'-0" = 1'-0"
140
12.0
141
12.0
290
     0
  0
ACDBSECTIONVIEWSTYLE
  5
3B6
102
{ACAD_XDICTIONARY
360
426
102
}
102
{ACAD_REACTORS
330
3B5
102
}
330
3B5
100
AcDbModelDocViewStyle
 70
     0
  3
Imperial24
290
     0
100
AcDbSectionViewStyle
 70
     0
 71
     0
 90
       78
 71
     1
340
3A3
 40
0.24
340
0
340
0
 40
0.24
300
I, O, Q, S, X, Z
 40
0.48
 90
        3
 40
0.18
 90
        1
 71
     2
340
3AA
 90
       25
340
3AA
 90
       50
 40
0.24
 40
0.0
 40
0.24
 71
     3
340
3A3
 40
0.24
 90
        1
 40
0.75
 90
        1
300
%<\AcVar ViewType \f "%tc1">% %<\AcVar ViewSectionStartId>%-%<\AcVar ViewSectionEndId>%\PSCALE %<\AcVar ViewScale \f "%sn">%
 71
     4
300
ANSI31
 40
1.0
 90
        0
290
     0
290
     0
 90
        6
 40
0.0
 40
1.570796326794896
 40
0.2617993877991494
 40
1.308996938995747
 40
-0.2617993877991494
 40
1.832595714594046
  0
TABLESTYLE
  5
3B2
102
{ACAD_XDICTIONARY
360
3ED
102
}
102
{ACAD_REACTORS
330
3B1
102
}
330
3B1
100
AcDbTableStyle
  3
Standard
 70
     0
 71
     0
 40
0.06
 41
0.06
280
     0
281
     0
  7
STANDARD
140
0.18
170
     2
 62
     0
 63
     7
283
     0
274
    -2
284
     1
 64
     0
275
    -2
285
     1
 65
     0
276
    -2
286
     1
 66
     0
277
    -2
287
     1
 67
     0
278
    -2
288
     1
 68
     0
279
    -2
289
     1
 69
     0
  7
STANDARD
140
0.25
170
     5
 62
     0
 63
     7
283
     0
274
    -2
284
     1
 64
     0
275
    -2
285
     1
 65
     0
276
    -2
286
     1
 66
     0
277
    -2
287
     1
 67
     0
278
    -2
288
     1
 68
     0
279
    -2
289
     1
 69
     0
  7
STANDARD
140
0.18
170
     5
 62
     0
 63
     7
283
     0
274
    -2
284
     1
 64
     0
275
    -2
285
     1
 65
     0
276
    -2
286
     1
 66
     0
277
    -2
287
     1
 67
     0
278
    -2
288
     1
 68
     0
279
    -2
289
     1
 69
     0
  0
VISUALSTYLE
  5
37D
102
{ACAD_XDICTIONARY
360
3FE
102
}
102
{ACAD_REACTORS
330
377
102
}
330
377
100
AcDbVisualStyle
  2
2dWireframe
 70
     4
 71
     0
 72
     2
 73
     0
 90
        0
 40
-0.6
 41
-30.0
 62
     5
 63
     7
 74
     1
 91
        4
 64
     7
 65
   257
 75
     1
175
     1
 42
1.0
 92
        0
 66
   257
 43
1.0
 76
     1
 77
     6
 78
     2
 67
     7
 79
     5
170
     0
171
     0
290
     0
174
     0
 93
        1
 44
0.0
173
     0
291
     0
 45
0.0
1001
ACAD
1000
AcDbSavedByObjectVersion
1070
     0
  0
VISUALSTYLE
  5
37C
102
{ACAD_XDICTIONARY
360
3FC
102
}
102
{ACAD_REACTORS
330
377
102
}
330
377
100
AcDbVisualStyle
  2
Basic
 70
     7
 71
     1
 72
     0
 73
     1
 90
        0
 40
-0.6
 41
-30.0
 62
     5
 63
     7
 74
     0
 91
        4
 64
     7
 65
   257
 75
     1
175
     1
 42
1.0
 92
        8
 66
     7
 43
1.0
 76
     1
 77
     6
 78
     2
 67
     7
 79
     5
170
     0
171
     0
290
     0
174
     0
 93
        1
 44
0.0
173
     0
291
     1
 45
0.0
1001
ACAD
1000
AcDbSavedByObjectVersion
1070
     0
  0
VISUALSTYLE
  5
383
102
{ACAD_XDICTIONARY
360
40A
102
}
102
{ACAD_REACTORS
330
377
102
}
330
377
100
AcDbVisualStyle
  2
Brighten
 70
    12
 71
     2
 72
     2
 73
     0
 90
        0
 40
-0.6
 41
-30.0
 62
     5
 63
     7
 74
     1
 91
        4
 64
     7
 65
   257
 75
     1
175
     1
 42
1.0
 92
        8
 66
     7
 43
1.0
 76
     1
 77
     6
 78
     2
 67
     7
 79
     5
170
     0
171
     0
290
     0
174
     0
 93
        1
 44
50.0
173
     0
291
     1
 45
0.0
1001
ACAD
1000
AcDbSavedByObjectVersion
1070
     0
  0
VISUALSTYLE
  5
387
102
{ACAD_XDICTIONARY
360
412
102
}
102
{ACAD_REACTORS
330
377
102
}
330
377
100
AcDbVisualStyle
  2
ColorChange
 70
    16
 71
     2
 72
     2
 73
     3
 90
        0
 40
-0.6
 41
-30.0
 62
     5
 63
     8
 74
     1
 91
        4
 64
     7
 65
   257
 75
     1
175
     1
 42
1.0
 92
        8
 66
     8
 43
1.0
 76
     1
 77
     6
 78
     2
 67
     7
 79
     5
170
     0
171
     0
290
     0
174
     0
 93
        1
 44
0.0
173
     0
291
     1
 45
0.0
1001
ACAD
1000
AcDbSavedByObjectVersion
1070
     0
  0
VISUALSTYLE
  5
380
102
{ACAD_XDICTIONARY
360
404
102
}
102
{ACAD_REACTORS
330
377
102
}
330
377
100
AcDbVisualStyle
  2
Conceptual
 70
     9
 71
     3
 72
     2
 73
     0
 90
        0
 40
-0.6
 41
-30.0
 62
     5
 63
     7
 74
     2
 91
        2
 64
     7
 65
   257
 75
     1
175
     1
 42
179.0
 92
        8
 66
     7
 43
1.0
 76
     1
 77
     6
 78
     2
 67
     7
 79
     3
170
     0
171
     0
290
     0
174
     0
 93
        1
 44
0.0
173
     0
291
     0
 45
0.0
1001
ACAD
1000
AcDbSavedByObjectVersion
1070
     0
  0
VISUALSTYLE
  5
382
102
{ACAD_XDICTIONARY
360
408
102
}
102
{ACAD_REACTORS
330
377
102
}
330
377
100
AcDbVisualStyle
  2
Dim
 70
    11
 71
     2
 72
     2
 73
     0
 90
        0
 40
-0.6
 41
-30.0
 62
     5
 63
     7
 74
     1
 91
        4
 64
     7
 65
   257
 75
     1
175
     1
 42
1.0
 92
        8
 66
     7
 43
1.0
 76
     1
 77
     6
 78
     2
 67
     7
 79
     5
170
     0
171
     0
290
     0
174
     0
 93
        1
 44
-50.0
173
     0
291
     1
 45
0.0
1001
ACAD
1000
AcDbSavedByObjectVersion
1070
     0
  0
VISUALSTYLE
  5
38F
102
{ACAD_XDICTIONARY
360
422
102
}
102
{ACAD_REACTORS
330
377
102
}
330
377
100
AcDbVisualStyle
  2
EdgeColorOff
 70
    22
 71
     2
 72
     2
 73
     0
 90
        0
 40
-0.6
 41
-30.0
 62
     5
 63
     7
 74
     1
 91
        4
 64
     7
 65
   257
 75
     1
175
     1
 42
1.0
 92
        8
 66
     7
 43
1.0
 76
     1
 77
     6
 78
     2
 67
     7
 79
     5
170
     0
171
     0
290
     0
174
     0
 93
        1
 44
0.0
173
     0
291
     1
 45
0.0
1001
ACAD
1000
AcDbSavedByObjectVersion
1070
     0
  0
VISUALSTYLE
  5
386
102
{ACAD_XDICTIONARY
360
410
102
}
102
{ACAD_REACTORS
330
377
102
}
330
377
100
AcDbVisualStyle
  2
Facepattern
 70
    15
 71
     2
 72
     2
 73
     0
 90
        0
 40
-0.6
 41
-30.0
 62
     5
 63
     7
 74
     1
 91
        4
 64
     7
 65
   257
 75
     1
175
     1
 42
1.0
 92
        8
 66
     7
 43
1.0
 76
     1
 77
     6
 78
     2
 67
     7
 79
     5
170
     0
171
     0
290
     0
174
     0
 93
        1
 44
0.0
173
     0
291
     1
 45
0.0
1001
ACAD
1000
AcDbSavedByObjectVersion
1070
     0
  0
VISUALSTYLE
  5
378
102
{ACAD_XDICTIONARY
360
3F4
102
}
102
{ACAD_REACTORS
330
377
102
}
330
377
100
AcDbVisualStyle
  2
Flat
 70
     0
 71
     2
 72
     1
 73
     1
 90
        2
 40
-0.6
 41
30.0
 62
     5
 63
     7
 74
     0
 91
        0
 64
     7
 65
   257
 75
     1
175
     1
 42
1.0
 92
        8
 66
     7
 43
1.0
 76
     1
 77
     6
 78
     2
 67
     7
 79
     5
170
     0
171
     0
290
     0
174
     0
 93
       13
 44
0.0
173
     0
291
     1
 45
0.0
1001
ACAD
1000
AcDbSavedByObjectVersion
1070
     0
  0
VISUALSTYLE
  5
379
102
{ACAD_XDICTIONARY
360
3F6
102
}
102
{ACAD_REACTORS
330
377
102
}
330
377
100
AcDbVisualStyle
  2
FlatWithEdges
 70
     1
 71
     2
 72
     1
 73
     1
 90
        2
 40
-0.6
 41
30.0
 62
     5
 63
     7
 74
     1
 91
        0
 64
     7
 65
   257
 75
     1
175
     1
 42
1.0
 92
        0
 66
   257
 43
1.0
 76
     1
 77
     6
 78
     2
 67
     7
 79
     5
170
     0
171
     0
290
     0
174
     0
 93
       13
 44
0.0
173
     0
291
     1
 45
0.0
1001
ACAD
1000
AcDbSavedByObjectVersion
1070
     0
  0
VISUALSTYLE
  5
37A
102
{ACAD_XDICTIONARY
360
3F8
102
}
102
{ACAD_REACTORS
330
377
102
}
330
377
100
AcDbVisualStyle
  2
Gouraud
 70
     2
 71
     2
 72
     2
 73
     1
 90
        2
 40
-0.6
 41
30.0
 62
     5
 63
     7
 74
     0
 91
        0
 64
     7
 65
   257
 75
     1
175
     1
 42
1.0
 92
        0
 66
     7
 43
1.0
 76
     1
 77
     6
 78
     2
 67
     7
 79
     5
170
     0
171
     0
290
     0
174
     0
 93
       13
 44
0.0
173
     0
291
     1
 45
0.0
1001
ACAD
1000
AcDbSavedByObjectVersion
1070
     0
  0
VISUALSTYLE
  5
37B
102
{ACAD_XDICTIONARY
360
3FA
102
}
102
{ACAD_REACTORS
330
377
102
}
330
377
100
AcDbVisualStyle
  2
GouraudWithEdges
 70
     3
 71
     2
 72
     2
 73
     1
 90
        2
 40
-0.6
 41
30.0
 62
     5
 63
     7
 74
     1
 91
        0
 64
     7
 65
   257
 75
     1
175
     1
 42
1.0
 92
        0
 66
   257
 43
1.0
 76
     1
 77
     6
 78
     2
 67
     7
 79
     5
170
     0
171
     0
290
     0
174
     0
 93
       13
 44
0.0
173
     0
291
     1
 45
0.0
1001
ACAD
1000
AcDbSavedByObjectVersion
1070
     0
  0
VISUALSTYLE
  5
37F
102
{ACAD_XDICTIONARY
360
402
102
}
102
{ACAD_REACTORS
330
377
102
}
330
377
100
AcDbVisualStyle
  2
Hidden
 70
     6
 71
     1
 72
     2
 73
     2
 90
        0
 40
-0.6
 41
-30.0
 62
     5
 63
     7
 74
     2
 91
        2
 64
     7
 65
   257
 75
     2
175
     1
 42
40.0
 92
        0
 66
   257
 43
1.0
 76
     1
 77
     6
 78
     2
 67
     7
 79
     3
170
     0
171
     0
290
     0
174
     0
 93
        1
 44
0.0
173
     0
291
     0
 45
0.0
1001
ACAD
1000
AcDbSavedByObjectVersion
1070
     0
  0
VISUALSTYLE
  5
38D
102
{ACAD_XDICTIONARY
360
41E
102
}
102
{ACAD_REACTORS
330
377
102
}
330
377
100
AcDbVisualStyle
  2
JitterOff
 70
    20
 71
     2
 72
     2
 73
     0
 90
        0
 40
-0.6
 41
-30.0
 62
     5
 63
     7
 74
     1
 91
        4
 64
     7
 65
   257
 75
     1
175
     1
 42
1.0
 92
       10
 66
     7
 43
1.0
 76
     1
 77
     6
 78
     2
 67
     7
 79
     5
170
     0
171
     0
290
     0
174
     0
 93
        1
 44
0.0
173
     0
291
     1
 45
0.0
1001
ACAD
1000
AcDbSavedByObjectVersion
1070
     0
  0
VISUALSTYLE
  5
385
102
{ACAD_XDICTIONARY
360
40E
102
}
102
{ACAD_REACTORS
330
377
102
}
330
377
100
AcDbVisualStyle
  2
Linepattern
 70
    14
 71
     2
 72
     2
 73
     0
 90
        0
 40
-0.6
 41
-30.0
 62
     5
 63
     7
 74
     1
 91
        4
 64
     7
 65
   257
 75
     7
175
     7
 42
1.0
 92
        8
 66
     7
 43
1.0
 76
     1
 77
     6
 78
     2
 67
     7
 79
     5
170
     0
171
     0
290
     0
174
     0
 93
        1
 44
0.0
173
     0
291
     1
 45
0.0
1001
ACAD
1000
AcDbSavedByObjectVersion
1070
     0
  0
VISUALSTYLE
  5
38E
102
{ACAD_XDICTIONARY
360
420
102
}
102
{ACAD_REACTORS
330
377
102
}
330
377
100
AcDbVisualStyle
  2
OverhangOff
 70
    21
 71
     2
 72
     2
 73
     0
 90
        0
 40
-0.6
 41
-30.0
 62
     5
 63
     7
 74
     1
 91
        4
 64
     7
 65
   257
 75
     1
175
     1
 42
1.0
 92
        9
 66
     7
 43
1.0
 76
     1
 77
     6
 78
     2
 67
     7
 79
     5
170
     0
171
     0
290
     0
174
     0
 93
        1
 44
0.0
173
     0
291
     1
 45
0.0
1001
ACAD
1000
AcDbSavedByObjectVersion
1070
     0
  0
VISUALSTYLE
  5
381
102
{ACAD_XDICTIONARY
360
406
102
}
102
{ACAD_REACTORS
330
377
102
}
330
377
100
AcDbVisualStyle
  2
Realistic
 70
     8
 71
     2
 72
     3
 73
     0
 90
        2
 40
-0.6
 41
30.0
 62
     5
 63
     7
 74
     0
 91
        0
 64
     7
 65
   257
 75
     1
175
     1
 42
1.0
 92
        8
 66
   257
 43
1.0
 76
     1
 77
     6
 78
     2
 67
     7
 79
     3
170
     0
171
     0
290
     0
174
     0
 93
       13
 44
0.0
173
     0
291
     0
 45
0.0
1001
ACAD
1000
AcDbSavedByObjectVersion
1070
     0
  0
VISUALSTYLE
  5
38C
102
{ACAD_XDICTIONARY
360
41C
102
}
102
{ACAD_REACTORS
330
377
102
}
330
377
100
AcDbVisualStyle
  2
Shaded
 70
    27
 71
     2
 72
     2
 73
     1
 90
        2
 40
-0.6
 41
30.0
 62
     5
 63
     7
 74
     0
 91
        4
 64
     7
 65
   257
 75
     1
175
     1
 42
1.0
 92
        8
 66
   257
 43
1.0
 76
     1
 77
     6
 78
     2
 67
     8
 79
     3
170
     0
171
     0
290
     0
174
     0
 93
        5
 44
0.0
173
     0
291
     0
 45
0.0
1001
ACAD
1000
AcDbSavedByObjectVersion
1070
     0
  0
VISUALSTYLE
  5
38B
102
{ACAD_XDICTIONARY
360
41A
102
}
102
{ACAD_REACTORS
330
377
102
}
330
377
100
AcDbVisualStyle
  2
Shaded with edges
 70
    26
 71
     2
 72
     2
 73
     1
 90
        2
 40
-0.6
 41
30.0
 62
     5
 63
     7
 74
     1
 91
        2
 64
     7
 65
   257
 75
     2
175
     1
 42
1.0
 92
        8
 66
   257
 43
1.0
 76
     1
 77
     6
 78
     2
 67
     7
 79
     3
170
     0
171
     0
290
     0
174
     0
 93
        5
 44
0.0
173
     0
291
     0
 45
0.0
1001
ACAD
1000
AcDbSavedByObjectVersion
1070
     0
  0
VISUALSTYLE
  5
388
102
{ACAD_XDICTIONARY
360
414
102
}
102
{ACAD_REACTORS
330
377
102
}
330
377
100
AcDbVisualStyle
  2
Shades of Gray
 70
    23
 71
     2
 72
     2
 73
     3
 90
        0
 40
-0.6
 41
-30.0
 62
     5
 63
     7
 74
     2
 91
        2
 64
     7
 65
     7
 75
     1
175
     1
 42
40.0
 92
        8
 66
     7
 43
1.0
 76
     1
 77
     6
 78
     2
 67
     7
 79
     3
170
     0
171
     0
290
     0
174
     0
 93
        1
 44
0.0
173
     0
291
     0
 45
0.0
1001
ACAD
1000
AcDbSavedByObjectVersion
1070
     0
  0
VISUALSTYLE
  5
389
102
{ACAD_XDICTIONARY
360
416
102
}
102
{ACAD_REACTORS
330
377
102
}
330
377
100
AcDbVisualStyle
  2
Sketchy
 70
    24
 71
     1
 72
     2
 73
     2
 90
        0
 40
-0.6
 41
-30.0
 62
     5
 63
     7
 74
     2
 91
        2
 64
     7
 65
     7
 75
     1
175
     1
 42
40.0
 92
       11
 66
     7
 43
1.0
 76
     1
 77
     6
 78
     2
 67
     7
 79
     6
170
     0
171
     0
290
     0
174
     0
 93
        1
 44
0.0
173
     0
291
     0
 45
0.0
1001
ACAD
1000
AcDbSavedByObjectVersion
1070
     0
  0
VISUALSTYLE
  5
384
102
{ACAD_XDICTIONARY
360
40C
102
}
102
{ACAD_REACTORS
330
377
102
}
330
377
100
AcDbVisualStyle
  2
Thicken
 70
    13
 71
     2
 72
     2
 73
     0
 90
        0
 40
-0.6
 41
-30.0
 62
     5
 63
     7
 74
     1
 91
        4
 64
     7
 65
   257
 75
     1
175
     1
 42
1.0
 92
       12
 66
     7
 43
1.0
 76
     1
 77
     6
 78
     2
 67
     7
 79
     5
170
     0
171
     0
290
     0
174
     0
 93
        1
 44
0.0
173
     0
291
     1
 45
0.0
1001
ACAD
1000
AcDbSavedByObjectVersion
1070
     0
  0
VISUALSTYLE
  5
37E
102
{ACAD_XDICTIONARY
360
400
102
}
102
{ACAD_REACTORS
330
377
102
}
330
377
100
AcDbVisualStyle
  2
Wireframe
 70
     5
 71
     0
 72
     2
 73
     0
 90
        0
 40
-0.6
 41
-30.0
 62
     5
 63
     7
 74
     1
 91
        4
 64
     7
 65
   257
 75
     1
175
     1
 42
1.0
 92
        0
 66
   257
 43
1.0
 76
     1
 77
     6
 78
     2
 67
     7
 79
     3
170
     0
171
     0
290
     0
174
     0
 93
        1
 44
0.0
173
     0
291
     0
 45
0.0
1001
ACAD
1000
AcDbSavedByObjectVersion
1070
     0
  0
VISUALSTYLE
  5
38A
102
{ACAD_XDICTIONARY
360
418
102
}
102
{ACAD_REACTORS
330
377
102
}
330
377
100
AcDbVisualStyle
  2
X-Ray
 70
    25
 71
     2
 72
     2
 73
     1
 90
        1
 40
0.5
 41
-30.0
 62
     5
 63
     7
 74
     1
 91
        0
 64
     7
 65
   257
 75
     1
175
     1
 42
1.0
 92
        8
 66
     7
 43
1.0
 76
     1
 77
     6
 78
     2
 67
     7
 79
     3
170
     0
171
     0
290
     0
174
     0
 93
       13
 44
0.0
173
     0
291
     0
 45
0.0
1001
ACAD
1000
AcDbSavedByObjectVersion
1070
     0
  0
DICTIONARYVAR
  5
3E7
102
{ACAD_REACTORS
330
3E2
102
}
330
3E2
100
DictionaryVariables
280
     0
  1
1:1
  0
DICTIONARYVAR
  5
3E4
102
{ACAD_REACTORS
330
3E2
102
}
330
3E2
100
DictionaryVariables
280
     0
  1
STANDARD
  0
DICTIONARYVAR
  5
3E3
102
{ACAD_REACTORS
330
3E2
102
}
330
3E2
100
DictionaryVariables
280
     0
  1
STANDARD
  0
DICTIONARYVAR
  5
3E5
102
{ACAD_REACTORS
330
3E2
102
}
330
3E2
100
DictionaryVariables
280
     0
  1
Imperial24
  0
DICTIONARYVAR
  5
3E6
102
{ACAD_REACTORS
330
3E2
102
}
330
3E2
100
DictionaryVariables
280
     0
  1
Imperial24
  0
DICTIONARYVAR
  5
3EA
102
{ACAD_REACTORS
330
3E2
102
}
330
3E2
100
DictionaryVariables
280
     0
  1
1
  0
DICTIONARYVAR
  5
3E9
102
{ACAD_REACTORS
330
3E2
102
}
330
3E2
100
DictionaryVariables
280
     0
  1
0
  0
DICTIONARYVAR
  5
3E8
102
{ACAD_REACTORS
330
3E2
102
}
330
3E2
100
DictionaryVariables
280
     0
  1
127
  0
DICTIONARYVAR
  5
3EB
102
{ACAD_REACTORS
330
3E2
102
}
330
3E2
100
DictionaryVariables
280
     0
  1
2
  0
DICTIONARY
  5
428
330
3B8
100
AcDbDictionary
280
     1
281
     1
  3
ACAD_XREC_ROUNDTRIP
360
429
  0
DICTIONARY
  5
42C
330
3C0
100
AcDbDictionary
280
     1
281
     1
  3
ACAD_XREC_ROUNDTRIP
360
42D
  0
DICTIONARY
  5
42A
330
3BC
100
AcDbDictionary
280
     1
281
     1
  3
ACAD_XREC_ROUNDTRIP
360
42B
  0
DICTIONARY
  5
368
330
367
100
AcDbDictionary
280
     1
281
     1
  3
ACAD_XREC_ROUNDTRIP
360
3F2
  3
BUMPTILE
360
36A
  3
DIFFUSETILE
360
369
  3
OPACITYTILE
360
36D
  3
REFLECTIONTILE
360
36C
  3
REFRACTIONTILE
360
36E
  3
SPECULARTILE
360
36B
  0
DICTIONARY
  5
360
330
35F
100
AcDbDictionary
280
     1
281
     1
  3
ACAD_XREC_ROUNDTRIP
360
3F1
  3
BUMPTILE
360
362
  3
DIFFUSETILE
360
361
  3
OPACITYTILE
360
365
  3
REFLECTIONTILE
360
364
  3
REFRACTIONTILE
360
366
  3
SPECULARTILE
360
363
  0
DICTIONARY
  5
370
330
36F
100
AcDbDictionary
280
     1
281
     1
  3
ACAD_XREC_ROUNDTRIP
360
3F3
  3
BUMPTILE
360
372
  3
DIFFUSETILE
360
371
  3
OPACITYTILE
360
375
  3
REFLECTIONTILE
360
374
  3
REFRACTIONTILE
360
376
  3
SPECULARTILE
360
373
  0
DICTIONARY
  5
426
330
3B6
100
AcDbDictionary
280
     1
281
     1
  3
ACAD_XREC_ROUNDTRIP
360
427
  0
DICTIONARY
  5
3ED
330
3B2
100
AcDbDictionary
280
     1
281
     1
  3
ACAD_ROUNDTRIP_2008_TABLESTYLE_CELLSTYLEMAP
360
3EE
  3
ACAD_XREC_ROUNDTRIP
360
424
  0
DICTIONARY
  5
3FE
330
37D
100
AcDbDictionary
280
     1
281
     1
  3
ACAD_XREC_ROUNDTRIP
360
3FF
  0
DICTIONARY
  5
3FC
330
37C
100
AcDbDictionary
280
     1
281
     1
  3
ACAD_XREC_ROUNDTRIP
360
3FD
  0
DICTIONARY
  5
40A
330
383
100
AcDbDictionary
280
     1
281
     1
  3
ACAD_XREC_ROUNDTRIP
360
40B
  0
DICTIONARY
  5
412
330
387
100
AcDbDictionary
280
     1
281
     1
  3
ACAD_XREC_ROUNDTRIP
360
413
  0
DICTIONARY
  5
404
330
380
100
AcDbDictionary
280
     1
281
     1
  3
ACAD_XREC_ROUNDTRIP
360
405
  0
DICTIONARY
  5
408
330
382
100
AcDbDictionary
280
     1
281
     1
  3
ACAD_XREC_ROUNDTRIP
360
409
  0
DICTIONARY
  5
422
330
38F
100
AcDbDictionary
280
     1
281
     1
  3
ACAD_XREC_ROUNDTRIP
360
423
  0
DICTIONARY
  5
410
330
386
100
AcDbDictionary
280
     1
281
     1
  3
ACAD_XREC_ROUNDTRIP
360
411
  0
DICTIONARY
  5
3F4
330
378
100
AcDbDictionary
280
     1
281
     1
  3
ACAD_XREC_ROUNDTRIP
360
3F5
  0
DICTIONARY
  5
3F6
330
379
100
AcDbDictionary
280
     1
281
     1
  3
ACAD_XREC_ROUNDTRIP
360
3F7
  0
DICTIONARY
  5
3F8
330
37A
100
AcDbDictionary
280
     1
281
     1
  3
ACAD_XREC_ROUNDTRIP
360
3F9
  0
DICTIONARY
  5
3FA
330
37B
100
AcDbDictionary
280
     1
281
     1
  3
ACAD_XREC_ROUNDTRIP
360
3FB
  0
DICTIONARY
  5
402
330
37F
100
AcDbDictionary
280
     1
281
     1
  3
ACAD_XREC_ROUNDTRIP
360
403
  0
DICTIONARY
  5
41E
330
38D
100
AcDbDictionary
280
     1
281
     1
  3
ACAD_XREC_ROUNDTRIP
360
41F
  0
DICTIONARY
  5
40E
330
385
100
AcDbDictionary
280
     1
281
     1
  3
ACAD_XREC_ROUNDTRIP
360
40F
  0
DICTIONARY
  5
420
330
38E
100
AcDbDictionary
280
     1
281
     1
  3
ACAD_XREC_ROUNDTRIP
360
421
  0
DICTIONARY
  5
406
330
381
100
AcDbDictionary
280
     1
281
     1
  3
ACAD_XREC_ROUNDTRIP
360
407
  0
DICTIONARY
  5
41C
330
38C
100
AcDbDictionary
280
     1
281
     1
  3
ACAD_XREC_ROUNDTRIP
360
41D
  0
DICTIONARY
  5
41A
330
38B
100
AcDbDictionary
280
     1
281
     1
  3
ACAD_XREC_ROUNDTRIP
360
41B
  0
DICTIONARY
  5
414
330
388
100
AcDbDictionary
280
     1
281
     1
  3
ACAD_XREC_ROUNDTRIP
360
415
  0
DICTIONARY
  5
416
330
389
100
AcDbDictionary
280
     1
281
     1
  3
ACAD_XREC_ROUNDTRIP
360
417
  0
DICTIONARY
  5
40C
330
384
100
AcDbDictionary
280
     1
281
     1
  3
ACAD_XREC_ROUNDTRIP
360
40D
  0
DICTIONARY
  5
400
330
37E
100
AcDbDictionary
280
     1
281
     1
  3
ACAD_XREC_ROUNDTRIP
360
401
  0
DICTIONARY
  5
418
330
38A
100
AcDbDictionary
280
     1
281
     1
  3
ACAD_XREC_ROUNDTRIP
360
419
  0
XRECORD
  5
429
102
{ACAD_REACTORS
330
428
102
}
330
428
100
AcDbXrecord
280
     1
102
DISPLAYNAME
  1
Imperial24
102
FLAGS
 90
        0
  0
XRECORD
  5
42D
102
{ACAD_REACTORS
330
42C
102
}
330
42C
100
AcDbXrecord
280
     1
102
SHADEPLOT
 70
     0
102
SHADEPLOTRESLEVEL
 70
     2
102
SHADEPLOTCUSTOMDPI
 70
   300
  0
XRECORD
  5
42B
102
{ACAD_REACTORS
330
42A
102
}
330
42A
100
AcDbXrecord
280
     1
102
SHADEPLOT
 70
     0
102
SHADEPLOTRESLEVEL
 70
     2
102
SHADEPLOTCUSTOMDPI
 70
   300
  0
XRECORD
  5
3F2
102
{ACAD_REACTORS
330
368
102
}
330
368
100
AcDbXrecord
280
     1
102
MATERIAL
148
0.0
149
0.0
149
0.0
 93
        0
 94
      127
282
     0
 72
     0
 77
     0
171
     0
175
     0
179
     0
273
     0
  0
XRECORD
  5
36A
102
{ACAD_REACTORS
330
368
102
}
330
368
100
AcDbXrecord
280
     1
270
     1
271
     1
  0
XRECORD
  5
369
102
{ACAD_REACTORS
330
368
102
}
330
368
100
AcDbXrecord
280
     1
270
     1
271
     1
  0
XRECORD
  5
36D
102
{ACAD_REACTORS
330
368
102
}
330
368
100
AcDbXrecord
280
     1
270
     1
271
     1
  0
XRECORD
  5
36C
102
{ACAD_REACTORS
330
368
102
}
330
368
100
AcDbXrecord
280
     1
270
     1
271
     1
  0
XRECORD
  5
36E
102
{ACAD_REACTORS
330
368
102
}
330
368
100
AcDbXrecord
280
     1
270
     1
271
     1
  0
XRECORD
  5
36B
102
{ACAD_REACTORS
330
368
102
}
330
368
100
AcDbXrecord
280
     1
270
     1
271
     1
  0
XRECORD
  5
3F1
102
{ACAD_REACTORS
330
360
102
}
330
360
100
AcDbXrecord
280
     1
102
MATERIAL
148
0.0
149
0.0
149
0.0
 93
        0
 94
      127
282
     0
 72
     0
 77
     0
171
     0
175
     0
179
     0
273
     0
  0
XRECORD
  5
362
102
{ACAD_REACTORS
330
360
102
}
330
360
100
AcDbXrecord
280
     1
270
     1
271
     1
  0
XRECORD
  5
361
102
{ACAD_REACTORS
330
360
102
}
330
360
100
AcDbXrecord
280
     1
270
     1
271
     1
  0
XRECORD
  5
365
102
{ACAD_REACTORS
330
360
102
}
330
360
100
AcDbXrecord
280
     1
270
     1
271
     1
  0
XRECORD
  5
364
102
{ACAD_REACTORS
330
360
102
}
330
360
100
AcDbXrecord
280
     1
270
     1
271
     1
  0
XRECORD
  5
366
102
{ACAD_REACTORS
330
360
102
}
330
360
100
AcDbXrecord
280
     1
270
     1
271
     1
  0
XRECORD
  5
363
102
{ACAD_REACTORS
330
360
102
}
330
360
100
AcDbXrecord
280
     1
270
     1
271
     1
  0
XRECORD
  5
3F3
102
{ACAD_REACTORS
330
370
102
}
330
370
100
AcDbXrecord
280
     1
102
MATERIAL
148
0.0
149
0.0
149
0.0
 93
        0
 94
      127
282
     0
 72
     0
 77
     0
171
     0
175
     0
179
     0
273
     0
  0
XRECORD
  5
372
102
{ACAD_REACTORS
330
370
102
}
330
370
100
AcDbXrecord
280
     1
270
     1
271
     1
  0
XRECORD
  5
371
102
{ACAD_REACTORS
330
370
102
}
330
370
100
AcDbXrecord
280
     1
270
     1
271
     1
  0
XRECORD
  5
375
102
{ACAD_REACTORS
330
370
102
}
330
370
100
AcDbXrecord
280
     1
270
     1
271
     1
  0
XRECORD
  5
374
102
{ACAD_REACTORS
330
370
102
}
330
370
100
AcDbXrecord
280
     1
270
     1
271
     1
  0
XRECORD
  5
376
102
{ACAD_REACTORS
330
370
102
}
330
370
100
AcDbXrecord
280
     1
270
     1
271
     1
  0
XRECORD
  5
373
102
{ACAD_REACTORS
330
370
102
}
330
370
100
AcDbXrecord
280
     1
270
     1
271
     1
  0
XRECORD
  5
427
102
{ACAD_REACTORS
330
426
102
}
330
426
100
AcDbXrecord
280
     1
102
DISPLAYNAME
  1
Imperial24
102
FLAGS
 90
        0
  0
CELLSTYLEMAP
  5
3EE
102
{ACAD_REACTORS
330
3ED
102
}
330
3ED
100
AcDbCellStyleMap
 90
        3
300
CELLSTYLE
  1
TABLEFORMAT_BEGIN
 90
        5
170
     1
 91
        0
 92
    32768
 62
   257
 93
        1
300
CONTENTFORMAT
  1
CONTENTFORMAT_BEGIN
 90
        0
 91
        0
 92
      512
 93
        0
300

 40
0.0
140
1.0
 94
        5
 62
     0
340
3A3
144
0.25
309
CONTENTFORMAT_END
171
     0
 94
        0
309
TABLEFORMAT_END
  1
CELLSTYLE_BEGIN
 90
        1
 91
        1
300
_TITLE
309
CELLSTYLE_END
300
CELLSTYLE
  1
TABLEFORMAT_BEGIN
 90
        5
170
     1
 91
        0
 92
        0
 62
   257
 93
        1
300
CONTENTFORMAT
  1
CONTENTFORMAT_BEGIN
 90
        0
 91
        0
 92
      512
 93
        0
300

 40
0.0
140
1.0
 94
        5
 62
     0
340
3A3
144
0.18
309
CONTENTFORMAT_END
171
     0
 94
        0
309
TABLEFORMAT_END
  1
CELLSTYLE_BEGIN
 90
        2
 91
        1
300
_HEADER
309
CELLSTYLE_END
300
CELLSTYLE
  1
TABLEFORMAT_BEGIN
 90
        5
170
     1
 91
        0
 92
        0
 62
   257
 93
        1
300
CONTENTFORMAT
  1
CONTENTFORMAT_BEGIN
 90
        0
 91
        0
 92
      512
 93
        0
300

 40
0.0
140
1.0
 94
        2
 62
     0
340
3A3
144
0.18
309
CONTENTFORMAT_END
171
     0
 94
        0
309
TABLEFORMAT_END
  1
CELLSTYLE_BEGIN
 90
        3
 91
        2
300
_DATA
309
CELLSTYLE_END
  0
XRECORD
  5
424
102
{ACAD_REACTORS
330
3ED
102
}
330
3ED
100
AcDbXrecord
280
     1
102
ACAD_ROUNDTRIP_PRE2007_TABLESTYLE
 90
      512
 91
        0
  1

 92
      512
 93
        0
  2

 94
      512
 95
        0
  3

  0
XRECORD
  5
3FF
102
{ACAD_REACTORS
330
3FE
102
}
330
3FE
100
AcDbXrecord
280
     1
102
RTVSPost2010Prop28
280
     1
102
RTVSPost2010PropOp28
 70
     1
102
RTVSPost2010Prop29
280
     1
102
RTVSPost2010PropOp29
 70
     1
102
RTVSPost2010Prop30
280
     0
102
RTVSPost2010PropOp30
 70
     1
102
RTVSPost2010Prop31
280
     0
102
RTVSPost2010PropOp31
 70
     1
102
RTVSPost2010Prop32
280
     0
102
RTVSPost2010PropOp32
 70
     1
102
RTVSPost2010Prop33
280
     0
102
RTVSPost2010PropOp33
 70
     1
102
RTVSPost2010Prop34
280
     0
102
RTVSPost2010PropOp34
 70
     1
102
RTVSPost2010Prop35
280
     0
102
RTVSPost2010PropOp35
 70
     1
102
RTVSPost2010Prop36
280
     0
102
RTVSPost2010PropOp36
 70
     1
102
RTVSPost2010Prop37
 90
       50
102
RTVSPost2010PropOp37
 70
     1
102
RTVSPost2010Prop38
140
0.0
102
RTVSPost2010PropOp38
 70
     1
102
RTVSPost2010Prop39
140
1.0
102
RTVSPost2010PropOp39
 70
     1
102
RTVSPost2010Prop40
 90
        0
102
RTVSPost2010PropOp40
 70
     1
102
RTVSPost2010Prop41ColorIndex
 90
       18
102
RTVSPost2010Prop41ColorRGB
 90
        0
102
RTVSPost2010PropOp41
 70
     1
102
RTVSPost2010Prop42
 90
       50
102
RTVSPost2010PropOp42
 70
     1
102
RTVSPost2010Prop43
 90
        3
102
RTVSPost2010PropOp43
 70
     1
102
RTVSPost2010Prop44ColorIndex
 90
        5
102
RTVSPost2010Prop44ColorRGB
 90
      255
102
RTVSPost2010PropOp44
 70
     1
102
RTVSPost2010Prop45
280
     0
102
RTVSPost2010PropOp45
 70
     1
102
RTVSPost2010Prop46
 90
       50
102
RTVSPost2010PropOp46
 70
     1
102
RTVSPost2010Prop47
 90
       50
102
RTVSPost2010PropOp47
 70
     1
102
RTVSPost2010Prop48
 90
       50
102
RTVSPost2010PropOp48
 70
     1
102
RTVSPost2010Prop49
280
     0
102
RTVSPost2010PropOp49
 70
     1
102
RTVSPost2010Prop50
 90
       50
102
RTVSPost2010PropOp50
 70
     1
102
RTVSPost2010Prop51ColorIndex
 90
      256
102
RTVSPost2010Prop51ColorRGB
 90
-16777216
102
RTVSPost2010PropOp51
 70
     0
102
RTVSPost2010Prop52
140
1.0
102
RTVSPost2010PropOp52
 70
     0
102
RTVSPost2010Prop53
 90
        2
102
RTVSPost2010PropOp53
 70
     1
102
RTVSPost2010Prop54
  1
strokes_ogs.tif
102
RTVSPost2010PropOp54
 70
     1
102
RTVSPost2010Prop55
280
     0
102
RTVSPost2010PropOp55
 70
     1
102
RTVSPost2010Prop56
140
1.0
102
RTVSPost2010PropOp56
 70
     1
102
RTVSPost2010Prop57
140
1.0
102
RTVSPost2010PropOp57
 70
     1
102
RTVSPropertyOp0
 70
     1
102
RTVSPropertyOp1
 70
     1
102
RTVSPropertyOp2
 70
     1
102
RTVSPropertyOp3
 70
     1
102
RTVSPropertyOp4
 70
     1
102
RTVSPropertyOp5
 70
     1
102
RTVSPropertyOp6
 70
     1
102
RTVSPropertyOp7
 70
     1
102
RTVSPropertyOp8
 70
     1
102
RTVSPropertyOp9
 70
     1
102
RTVSPropertyOp10
 70
     1
102
RTVSPropertyOp11
 70
     1
102
RTVSPropertyOp12
 70
     1
102
RTVSPropertyOp13
 70
     1
102
RTVSPropertyOp14
 70
     1
102
RTVSPropertyOp15
 70
     1
102
RTVSPropertyOp16
 70
     1
102
RTVSPropertyOp17
 70
     1
102
RTVSPropertyOp18
 70
     1
102
RTVSPropertyOp19
 70
     1
102
RTVSPropertyOp20
 70
     1
102
RTVSPropertyOp21
 70
     1
102
RTVSPropertyOp22
 70
     1
102
RTVSPropertyOp23
 70
     1
102
RTVSPropertyOp24
 70
     1
102
RTVSPropertyOp25
 70
     1
102
RTVSPropertyOp26
 70
     1
102
RTVSPropertyOp27
 70
     1
102
RTVSPropertyOp28
 70
     1
102
RTVSPropertyOp29
 70
     1
102
RTVSPropertyOp30
 70
     1
102
RTVSPropertyOp31
 70
     1
102
RTVSPropertyOp32
 70
     1
102
RTVSPropertyOp33
 70
     1
102
RTVSPropertyOp34
 70
     1
102
RTVSPropertyOp35
 70
     1
102
RTVSPropertyOp36
 70
     1
102
RTVSPropertyOp37
 70
     1
102
RTVSPropertyOp38
 70
     1
102
RTVSPropertyOp39
 70
     1
102
RTVSPropertyOp40
 70
     1
102
RTVSPropertyOp41
 70
     1
102
RTVSPropertyOp42
 70
     1
102
RTVSPropertyOp43
 70
     1
102
RTVSPropertyOp44
 70
     1
102
RTVSPropertyOp45
 70
     1
102
RTVSPropertyOp46
 70
     1
102
RTVSPropertyOp47
 70
     1
102
RTVSPropertyOp48
 70
     1
102
RTVSPropertyOp49
 70
     1
102
RTVSPropertyOp50
 70
     1
102
RTVSPropertyOp51
 70
     0
102
RTVSPropertyOp52
 70
     0
102
RTVSPropertyOp53
 70
     1
102
RTVSPropertyOp54
 70
     1
102
RTVSPropertyOp55
 70
     1
102
RTVSPropertyOp56
 70
     1
102
RTVSPropertyOp57
 70
     1
102
RTVSPropertyOp58
 70
     1
102
RTVSPropertyOp59
 70
     1
102
RTVSPropertyOp60
 70
     1
102
RTVSPropertyOp61
 70
     1
102
RTVSPropertyOp62
 70
     1
  0
XRECORD
  5
3FD
102
{ACAD_REACTORS
330
3FC
102
}
330
3FC
100
AcDbXrecord
280
     1
102
RTVSPost2010Prop28
280
     0
102
RTVSPost2010PropOp28
 70
     1
102
RTVSPost2010Prop29
280
     1
102
RTVSPost2010PropOp29
 70
     1
102
RTVSPost2010Prop30
280
     1
102
RTVSPost2010PropOp30
 70
     1
102
RTVSPost2010Prop31
280
     0
102
RTVSPost2010PropOp31
 70
     1
102
RTVSPost2010Prop32
280
     0
102
RTVSPost2010PropOp32
 70
     1
102
RTVSPost2010Prop33
280
     0
102
RTVSPost2010PropOp33
 70
     1
102
RTVSPost2010Prop34
280
     0
102
RTVSPost2010PropOp34
 70
     1
102
RTVSPost2010Prop35
280
     0
102
RTVSPost2010PropOp35
 70
     1
102
RTVSPost2010Prop36
280
     0
102
RTVSPost2010PropOp36
 70
     1
102
RTVSPost2010Prop37
 90
       50
102
RTVSPost2010PropOp37
 70
     1
102
RTVSPost2010Prop38
140
0.0
102
RTVSPost2010PropOp38
 70
     1
102
RTVSPost2010Prop39
140
1.0
102
RTVSPost2010PropOp39
 70
     1
102
RTVSPost2010Prop40
 90
        0
102
RTVSPost2010PropOp40
 70
     1
102
RTVSPost2010Prop41ColorIndex
 90
       18
102
RTVSPost2010Prop41ColorRGB
 90
        0
102
RTVSPost2010PropOp41
 70
     1
102
RTVSPost2010Prop42
 90
       50
102
RTVSPost2010PropOp42
 70
     1
102
RTVSPost2010Prop43
 90
        3
102
RTVSPost2010PropOp43
 70
     1
102
RTVSPost2010Prop44ColorIndex
 90
        5
102
RTVSPost2010Prop44ColorRGB
 90
      255
102
RTVSPost2010PropOp44
 70
     1
102
RTVSPost2010Prop45
280
     0
102
RTVSPost2010PropOp45
 70
     1
102
RTVSPost2010Prop46
 90
       50
102
RTVSPost2010PropOp46
 70
     1
102
RTVSPost2010Prop47
 90
       50
102
RTVSPost2010PropOp47
 70
     1
102
RTVSPost2010Prop48
 90
       50
102
RTVSPost2010PropOp48
 70
     1
102
RTVSPost2010Prop49
280
     0
102
RTVSPost2010PropOp49
 70
     1
102
RTVSPost2010Prop50
 90
       50
102
RTVSPost2010PropOp50
 70
     1
102
RTVSPost2010Prop51ColorIndex
 90
      256
102
RTVSPost2010Prop51ColorRGB
 90
-16777216
102
RTVSPost2010PropOp51
 70
     0
102
RTVSPost2010Prop52
140
1.0
102
RTVSPost2010PropOp52
 70
     0
102
RTVSPost2010Prop53
 90
        2
102
RTVSPost2010PropOp53
 70
     1
102
RTVSPost2010Prop54
  1
strokes_ogs.tif
102
RTVSPost2010PropOp54
 70
     1
102
RTVSPost2010Prop55
280
     0
102
RTVSPost2010PropOp55
 70
     1
102
RTVSPost2010Prop56
140
1.0
102
RTVSPost2010PropOp56
 70
     1
102
RTVSPost2010Prop57
140
1.0
102
RTVSPost2010PropOp57
 70
     1
102
RTVSPropertyOp0
 70
     1
102
RTVSPropertyOp1
 70
     1
102
RTVSPropertyOp2
 70
     1
102
RTVSPropertyOp3
 70
     1
102
RTVSPropertyOp4
 70
     1
102
RTVSPropertyOp5
 70
     1
102
RTVSPropertyOp6
 70
     1
102
RTVSPropertyOp7
 70
     1
102
RTVSPropertyOp8
 70
     1
102
RTVSPropertyOp9
 70
     1
102
RTVSPropertyOp10
 70
     1
102
RTVSPropertyOp11
 70
     1
102
RTVSPropertyOp12
 70
     1
102
RTVSPropertyOp13
 70
     1
102
RTVSPropertyOp14
 70
     1
102
RTVSPropertyOp15
 70
     1
102
RTVSPropertyOp16
 70
     1
102
RTVSPropertyOp17
 70
     1
102
RTVSPropertyOp18
 70
     1
102
RTVSPropertyOp19
 70
     1
102
RTVSPropertyOp20
 70
     1
102
RTVSPropertyOp21
 70
     1
102
RTVSPropertyOp22
 70
     1
102
RTVSPropertyOp23
 70
     1
102
RTVSPropertyOp24
 70
     1
102
RTVSPropertyOp25
 70
     1
102
RTVSPropertyOp26
 70
     1
102
RTVSPropertyOp27
 70
     1
102
RTVSPropertyOp28
 70
     1
102
RTVSPropertyOp29
 70
     1
102
RTVSPropertyOp30
 70
     1
102
RTVSPropertyOp31
 70
     1
102
RTVSPropertyOp32
 70
     1
102
RTVSPropertyOp33
 70
     1
102
RTVSPropertyOp34
 70
     1
102
RTVSPropertyOp35
 70
     1
102
RTVSPropertyOp36
 70
     1
102
RTVSPropertyOp37
 70
     1
102
RTVSPropertyOp38
 70
     1
102
RTVSPropertyOp39
 70
     1
102
RTVSPropertyOp40
 70
     1
102
RTVSPropertyOp41
 70
     1
102
RTVSPropertyOp42
 70
     1
102
RTVSPropertyOp43
 70
     1
102
RTVSPropertyOp44
 70
     1
102
RTVSPropertyOp45
 70
     1
102
RTVSPropertyOp46
 70
     1
102
RTVSPropertyOp47
 70
     1
102
RTVSPropertyOp48
 70
     1
102
RTVSPropertyOp49
 70
     1
102
RTVSPropertyOp50
 70
     1
102
RTVSPropertyOp51
 70
     0
102
RTVSPropertyOp52
 70
     0
102
RTVSPropertyOp53
 70
     1
102
RTVSPropertyOp54
 70
     1
102
RTVSPropertyOp55
 70
     1
102
RTVSPropertyOp56
 70
     1
102
RTVSPropertyOp57
 70
     1
102
RTVSPropertyOp58
 70
     1
102
RTVSPropertyOp59
 70
     1
102
RTVSPropertyOp60
 70
     1
102
RTVSPropertyOp61
 70
     1
102
RTVSPropertyOp62
 70
     1
  0
XRECORD
  5
40B
102
{ACAD_REACTORS
330
40A
102
}
330
40A
100
AcDbXrecord
280
     1
102
RTVSPost2010Prop28
280
     0
102
RTVSPost2010PropOp28
 70
     1
102
RTVSPost2010Prop29
280
     1
102
RTVSPost2010PropOp29
 70
     1
102
RTVSPost2010Prop30
280
     1
102
RTVSPost2010PropOp30
 70
     1
102
RTVSPost2010Prop31
280
     0
102
RTVSPost2010PropOp31
 70
     1
102
RTVSPost2010Prop32
280
     0
102
RTVSPost2010PropOp32
 70
     1
102
RTVSPost2010Prop33
280
     0
102
RTVSPost2010PropOp33
 70
     1
102
RTVSPost2010Prop34
280
     0
102
RTVSPost2010PropOp34
 70
     1
102
RTVSPost2010Prop35
280
     0
102
RTVSPost2010PropOp35
 70
     1
102
RTVSPost2010Prop36
280
     0
102
RTVSPost2010PropOp36
 70
     1
102
RTVSPost2010Prop37
 90
       50
102
RTVSPost2010PropOp37
 70
     1
102
RTVSPost2010Prop38
140
0.0
102
RTVSPost2010PropOp38
 70
     1
102
RTVSPost2010Prop39
140
1.0
102
RTVSPost2010PropOp39
 70
     1
102
RTVSPost2010Prop40
 90
        0
102
RTVSPost2010PropOp40
 70
     1
102
RTVSPost2010Prop41ColorIndex
 90
       18
102
RTVSPost2010Prop41ColorRGB
 90
        0
102
RTVSPost2010PropOp41
 70
     1
102
RTVSPost2010Prop42
 90
       50
102
RTVSPost2010PropOp42
 70
     1
102
RTVSPost2010Prop43
 90
        3
102
RTVSPost2010PropOp43
 70
     1
102
RTVSPost2010Prop44ColorIndex
 90
        5
102
RTVSPost2010Prop44ColorRGB
 90
      255
102
RTVSPost2010PropOp44
 70
     1
102
RTVSPost2010Prop45
280
     0
102
RTVSPost2010PropOp45
 70
     1
102
RTVSPost2010Prop46
 90
       50
102
RTVSPost2010PropOp46
 70
     1
102
RTVSPost2010Prop47
 90
       50
102
RTVSPost2010PropOp47
 70
     1
102
RTVSPost2010Prop48
 90
       50
102
RTVSPost2010PropOp48
 70
     1
102
RTVSPost2010Prop49
280
     0
102
RTVSPost2010PropOp49
 70
     1
102
RTVSPost2010Prop50
 90
       50
102
RTVSPost2010PropOp50
 70
     1
102
RTVSPost2010Prop51ColorIndex
 90
      256
102
RTVSPost2010Prop51ColorRGB
 90
-16777216
102
RTVSPost2010PropOp51
 70
     0
102
RTVSPost2010Prop52
140
1.0
102
RTVSPost2010PropOp52
 70
     0
102
RTVSPost2010Prop53
 90
        2
102
RTVSPost2010PropOp53
 70
     1
102
RTVSPost2010Prop54
  1
strokes_ogs.tif
102
RTVSPost2010PropOp54
 70
     1
102
RTVSPost2010Prop55
280
     0
102
RTVSPost2010PropOp55
 70
     1
102
RTVSPost2010Prop56
140
1.0
102
RTVSPost2010PropOp56
 70
     1
102
RTVSPost2010Prop57
140
1.0
102
RTVSPost2010PropOp57
 70
     1
102
RTVSPropertyOp0
 70
     1
102
RTVSPropertyOp1
 70
     1
102
RTVSPropertyOp2
 70
     1
102
RTVSPropertyOp3
 70
     1
102
RTVSPropertyOp4
 70
     1
102
RTVSPropertyOp5
 70
     1
102
RTVSPropertyOp6
 70
     1
102
RTVSPropertyOp7
 70
     1
102
RTVSPropertyOp8
 70
     1
102
RTVSPropertyOp9
 70
     1
102
RTVSPropertyOp10
 70
     1
102
RTVSPropertyOp11
 70
     1
102
RTVSPropertyOp12
 70
     1
102
RTVSPropertyOp13
 70
     1
102
RTVSPropertyOp14
 70
     1
102
RTVSPropertyOp15
 70
     1
102
RTVSPropertyOp16
 70
     1
102
RTVSPropertyOp17
 70
     1
102
RTVSPropertyOp18
 70
     1
102
RTVSPropertyOp19
 70
     1
102
RTVSPropertyOp20
 70
     1
102
RTVSPropertyOp21
 70
     1
102
RTVSPropertyOp22
 70
     1
102
RTVSPropertyOp23
 70
     1
102
RTVSPropertyOp24
 70
     1
102
RTVSPropertyOp25
 70
     1
102
RTVSPropertyOp26
 70
     1
102
RTVSPropertyOp27
 70
     1
102
RTVSPropertyOp28
 70
     1
102
RTVSPropertyOp29
 70
     1
102
RTVSPropertyOp30
 70
     1
102
RTVSPropertyOp31
 70
     1
102
RTVSPropertyOp32
 70
     1
102
RTVSPropertyOp33
 70
     1
102
RTVSPropertyOp34
 70
     1
102
RTVSPropertyOp35
 70
     1
102
RTVSPropertyOp36
 70
     1
102
RTVSPropertyOp37
 70
     1
102
RTVSPropertyOp38
 70
     1
102
RTVSPropertyOp39
 70
     1
102
RTVSPropertyOp40
 70
     1
102
RTVSPropertyOp41
 70
     1
102
RTVSPropertyOp42
 70
     1
102
RTVSPropertyOp43
 70
     1
102
RTVSPropertyOp44
 70
     1
102
RTVSPropertyOp45
 70
     1
102
RTVSPropertyOp46
 70
     1
102
RTVSPropertyOp47
 70
     1
102
RTVSPropertyOp48
 70
     1
102
RTVSPropertyOp49
 70
     1
102
RTVSPropertyOp50
 70
     1
102
RTVSPropertyOp51
 70
     0
102
RTVSPropertyOp52
 70
     0
102
RTVSPropertyOp53
 70
     1
102
RTVSPropertyOp54
 70
     1
102
RTVSPropertyOp55
 70
     1
102
RTVSPropertyOp56
 70
     1
102
RTVSPropertyOp57
 70
     1
102
RTVSPropertyOp58
 70
     1
102
RTVSPropertyOp59
 70
     1
102
RTVSPropertyOp60
 70
     1
102
RTVSPropertyOp61
 70
     1
102
RTVSPropertyOp62
 70
     1
  0
XRECORD
  5
413
102
{ACAD_REACTORS
330
412
102
}
330
412
100
AcDbXrecord
280
     1
102
RTVSPost2010Prop28
280
     0
102
RTVSPost2010PropOp28
 70
     1
102
RTVSPost2010Prop29
280
     1
102
RTVSPost2010PropOp29
 70
     1
102
RTVSPost2010Prop30
280
     1
102
RTVSPost2010PropOp30
 70
     1
102
RTVSPost2010Prop31
280
     0
102
RTVSPost2010PropOp31
 70
     1
102
RTVSPost2010Prop32
280
     0
102
RTVSPost2010PropOp32
 70
     1
102
RTVSPost2010Prop33
280
     0
102
RTVSPost2010PropOp33
 70
     1
102
RTVSPost2010Prop34
280
     0
102
RTVSPost2010PropOp34
 70
     1
102
RTVSPost2010Prop35
280
     0
102
RTVSPost2010PropOp35
 70
     1
102
RTVSPost2010Prop36
280
     0
102
RTVSPost2010PropOp36
 70
     1
102
RTVSPost2010Prop37
 90
       50
102
RTVSPost2010PropOp37
 70
     1
102
RTVSPost2010Prop38
140
0.0
102
RTVSPost2010PropOp38
 70
     1
102
RTVSPost2010Prop39
140
1.0
102
RTVSPost2010PropOp39
 70
     1
102
RTVSPost2010Prop40
 90
        0
102
RTVSPost2010PropOp40
 70
     1
102
RTVSPost2010Prop41ColorIndex
 90
       18
102
RTVSPost2010Prop41ColorRGB
 90
        0
102
RTVSPost2010PropOp41
 70
     1
102
RTVSPost2010Prop42
 90
       50
102
RTVSPost2010PropOp42
 70
     1
102
RTVSPost2010Prop43
 90
        3
102
RTVSPost2010PropOp43
 70
     1
102
RTVSPost2010Prop44ColorIndex
 90
        5
102
RTVSPost2010Prop44ColorRGB
 90
      255
102
RTVSPost2010PropOp44
 70
     1
102
RTVSPost2010Prop45
280
     0
102
RTVSPost2010PropOp45
 70
     1
102
RTVSPost2010Prop46
 90
       50
102
RTVSPost2010PropOp46
 70
     1
102
RTVSPost2010Prop47
 90
       50
102
RTVSPost2010PropOp47
 70
     1
102
RTVSPost2010Prop48
 90
       50
102
RTVSPost2010PropOp48
 70
     1
102
RTVSPost2010Prop49
280
     0
102
RTVSPost2010PropOp49
 70
     1
102
RTVSPost2010Prop50
 90
       50
102
RTVSPost2010PropOp50
 70
     1
102
RTVSPost2010Prop51ColorIndex
 90
      256
102
RTVSPost2010Prop51ColorRGB
 90
-16777216
102
RTVSPost2010PropOp51
 70
     0
102
RTVSPost2010Prop52
140
1.0
102
RTVSPost2010PropOp52
 70
     0
102
RTVSPost2010Prop53
 90
        2
102
RTVSPost2010PropOp53
 70
     1
102
RTVSPost2010Prop54
  1
strokes_ogs.tif
102
RTVSPost2010PropOp54
 70
     1
102
RTVSPost2010Prop55
280
     0
102
RTVSPost2010PropOp55
 70
     1
102
RTVSPost2010Prop56
140
1.0
102
RTVSPost2010PropOp56
 70
     1
102
RTVSPost2010Prop57
140
1.0
102
RTVSPost2010PropOp57
 70
     1
102
RTVSPropertyOp0
 70
     1
102
RTVSPropertyOp1
 70
     1
102
RTVSPropertyOp2
 70
     1
102
RTVSPropertyOp3
 70
     1
102
RTVSPropertyOp4
 70
     1
102
RTVSPropertyOp5
 70
     1
102
RTVSPropertyOp6
 70
     1
102
RTVSPropertyOp7
 70
     1
102
RTVSPropertyOp8
 70
     1
102
RTVSPropertyOp9
 70
     1
102
RTVSPropertyOp10
 70
     1
102
RTVSPropertyOp11
 70
     1
102
RTVSPropertyOp12
 70
     1
102
RTVSPropertyOp13
 70
     1
102
RTVSPropertyOp14
 70
     1
102
RTVSPropertyOp15
 70
     1
102
RTVSPropertyOp16
 70
     1
102
RTVSPropertyOp17
 70
     1
102
RTVSPropertyOp18
 70
     1
102
RTVSPropertyOp19
 70
     1
102
RTVSPropertyOp20
 70
     1
102
RTVSPropertyOp21
 70
     1
102
RTVSPropertyOp22
 70
     1
102
RTVSPropertyOp23
 70
     1
102
RTVSPropertyOp24
 70
     1
102
RTVSPropertyOp25
 70
     1
102
RTVSPropertyOp26
 70
     1
102
RTVSPropertyOp27
 70
     1
102
RTVSPropertyOp28
 70
     1
102
RTVSPropertyOp29
 70
     1
102
RTVSPropertyOp30
 70
     1
102
RTVSPropertyOp31
 70
     1
102
RTVSPropertyOp32
 70
     1
102
RTVSPropertyOp33
 70
     1
102
RTVSPropertyOp34
 70
     1
102
RTVSPropertyOp35
 70
     1
102
RTVSPropertyOp36
 70
     1
102
RTVSPropertyOp37
 70
     1
102
RTVSPropertyOp38
 70
     1
102
RTVSPropertyOp39
 70
     1
102
RTVSPropertyOp40
 70
     1
102
RTVSPropertyOp41
 70
     1
102
RTVSPropertyOp42
 70
     1
102
RTVSPropertyOp43
 70
     1
102
RTVSPropertyOp44
 70
     1
102
RTVSPropertyOp45
 70
     1
102
RTVSPropertyOp46
 70
     1
102
RTVSPropertyOp47
 70
     1
102
RTVSPropertyOp48
 70
     1
102
RTVSPropertyOp49
 70
     1
102
RTVSPropertyOp50
 70
     1
102
RTVSPropertyOp51
 70
     0
102
RTVSPropertyOp52
 70
     0
102
RTVSPropertyOp53
 70
     1
102
RTVSPropertyOp54
 70
     1
102
RTVSPropertyOp55
 70
     1
102
RTVSPropertyOp56
 70
     1
102
RTVSPropertyOp57
 70
     1
102
RTVSPropertyOp58
 70
     1
102
RTVSPropertyOp59
 70
     1
102
RTVSPropertyOp60
 70
     1
102
RTVSPropertyOp61
 70
     1
102
RTVSPropertyOp62
 70
     1
  0
XRECORD
  5
405
102
{ACAD_REACTORS
330
404
102
}
330
404
100
AcDbXrecord
280
     1
102
RTVSPost2010Prop28
280
     0
102
RTVSPost2010PropOp28
 70
     1
102
RTVSPost2010Prop29
280
     1
102
RTVSPost2010PropOp29
 70
     1
102
RTVSPost2010Prop30
280
     1
102
RTVSPost2010PropOp30
 70
     1
102
RTVSPost2010Prop31
280
     0
102
RTVSPost2010PropOp31
 70
     1
102
RTVSPost2010Prop32
280
     0
102
RTVSPost2010PropOp32
 70
     1
102
RTVSPost2010Prop33
280
     0
102
RTVSPost2010PropOp33
 70
     1
102
RTVSPost2010Prop34
280
     0
102
RTVSPost2010PropOp34
 70
     1
102
RTVSPost2010Prop35
280
     0
102
RTVSPost2010PropOp35
 70
     1
102
RTVSPost2010Prop36
280
     0
102
RTVSPost2010PropOp36
 70
     1
102
RTVSPost2010Prop37
 90
       50
102
RTVSPost2010PropOp37
 70
     1
102
RTVSPost2010Prop38
140
0.0
102
RTVSPost2010PropOp38
 70
     1
102
RTVSPost2010Prop39
140
1.0
102
RTVSPost2010PropOp39
 70
     1
102
RTVSPost2010Prop40
 90
        0
102
RTVSPost2010PropOp40
 70
     1
102
RTVSPost2010Prop41ColorIndex
 90
       18
102
RTVSPost2010Prop41ColorRGB
 90
        0
102
RTVSPost2010PropOp41
 70
     1
102
RTVSPost2010Prop42
 90
       50
102
RTVSPost2010PropOp42
 70
     1
102
RTVSPost2010Prop43
 90
        3
102
RTVSPost2010PropOp43
 70
     1
102
RTVSPost2010Prop44ColorIndex
 90
        5
102
RTVSPost2010Prop44ColorRGB
 90
      255
102
RTVSPost2010PropOp44
 70
     1
102
RTVSPost2010Prop45
280
     0
102
RTVSPost2010PropOp45
 70
     1
102
RTVSPost2010Prop46
 90
       50
102
RTVSPost2010PropOp46
 70
     1
102
RTVSPost2010Prop47
 90
       50
102
RTVSPost2010PropOp47
 70
     1
102
RTVSPost2010Prop48
 90
       50
102
RTVSPost2010PropOp48
 70
     1
102
RTVSPost2010Prop49
280
     0
102
RTVSPost2010PropOp49
 70
     1
102
RTVSPost2010Prop50
 90
       50
102
RTVSPost2010PropOp50
 70
     1
102
RTVSPost2010Prop51ColorIndex
 90
      256
102
RTVSPost2010Prop51ColorRGB
 90
-16777216
102
RTVSPost2010PropOp51
 70
     0
102
RTVSPost2010Prop52
140
1.0
102
RTVSPost2010PropOp52
 70
     0
102
RTVSPost2010Prop53
 90
        2
102
RTVSPost2010PropOp53
 70
     1
102
RTVSPost2010Prop54
  1
strokes_ogs.tif
102
RTVSPost2010PropOp54
 70
     1
102
RTVSPost2010Prop55
280
     0
102
RTVSPost2010PropOp55
 70
     1
102
RTVSPost2010Prop56
140
1.0
102
RTVSPost2010PropOp56
 70
     1
102
RTVSPost2010Prop57
140
1.0
102
RTVSPost2010PropOp57
 70
     1
102
RTVSPropertyOp0
 70
     1
102
RTVSPropertyOp1
 70
     1
102
RTVSPropertyOp2
 70
     1
102
RTVSPropertyOp3
 70
     1
102
RTVSPropertyOp4
 70
     1
102
RTVSPropertyOp5
 70
     1
102
RTVSPropertyOp6
 70
     1
102
RTVSPropertyOp7
 70
     1
102
RTVSPropertyOp8
 70
     1
102
RTVSPropertyOp9
 70
     1
102
RTVSPropertyOp10
 70
     1
102
RTVSPropertyOp11
 70
     1
102
RTVSPropertyOp12
 70
     1
102
RTVSPropertyOp13
 70
     1
102
RTVSPropertyOp14
 70
     1
102
RTVSPropertyOp15
 70
     1
102
RTVSPropertyOp16
 70
     1
102
RTVSPropertyOp17
 70
     1
102
RTVSPropertyOp18
 70
     1
102
RTVSPropertyOp19
 70
     1
102
RTVSPropertyOp20
 70
     1
102
RTVSPropertyOp21
 70
     1
102
RTVSPropertyOp22
 70
     1
102
RTVSPropertyOp23
 70
     1
102
RTVSPropertyOp24
 70
     1
102
RTVSPropertyOp25
 70
     1
102
RTVSPropertyOp26
 70
     1
102
RTVSPropertyOp27
 70
     1
102
RTVSPropertyOp28
 70
     1
102
RTVSPropertyOp29
 70
     1
102
RTVSPropertyOp30
 70
     1
102
RTVSPropertyOp31
 70
     1
102
RTVSPropertyOp32
 70
     1
102
RTVSPropertyOp33
 70
     1
102
RTVSPropertyOp34
 70
     1
102
RTVSPropertyOp35
 70
     1
102
RTVSPropertyOp36
 70
     1
102
RTVSPropertyOp37
 70
     1
102
RTVSPropertyOp38
 70
     1
102
RTVSPropertyOp39
 70
     1
102
RTVSPropertyOp40
 70
     1
102
RTVSPropertyOp41
 70
     1
102
RTVSPropertyOp42
 70
     1
102
RTVSPropertyOp43
 70
     1
102
RTVSPropertyOp44
 70
     1
102
RTVSPropertyOp45
 70
     1
102
RTVSPropertyOp46
 70
     1
102
RTVSPropertyOp47
 70
     1
102
RTVSPropertyOp48
 70
     1
102
RTVSPropertyOp49
 70
     1
102
RTVSPropertyOp50
 70
     1
102
RTVSPropertyOp51
 70
     0
102
RTVSPropertyOp52
 70
     0
102
RTVSPropertyOp53
 70
     1
102
RTVSPropertyOp54
 70
     1
102
RTVSPropertyOp55
 70
     1
102
RTVSPropertyOp56
 70
     1
102
RTVSPropertyOp57
 70
     1
102
RTVSPropertyOp58
 70
     1
102
RTVSPropertyOp59
 70
     1
102
RTVSPropertyOp60
 70
     1
102
RTVSPropertyOp61
 70
     1
102
RTVSPropertyOp62
 70
     1
  0
XRECORD
  5
409
102
{ACAD_REACTORS
330
408
102
}
330
408
100
AcDbXrecord
280
     1
102
RTVSPost2010Prop28
280
     0
102
RTVSPost2010PropOp28
 70
     1
102
RTVSPost2010Prop29
280
     1
102
RTVSPost2010PropOp29
 70
     1
102
RTVSPost2010Prop30
280
     1
102
RTVSPost2010PropOp30
 70
     1
102
RTVSPost2010Prop31
280
     0
102
RTVSPost2010PropOp31
 70
     1
102
RTVSPost2010Prop32
280
     0
102
RTVSPost2010PropOp32
 70
     1
102
RTVSPost2010Prop33
280
     0
102
RTVSPost2010PropOp33
 70
     1
102
RTVSPost2010Prop34
280
     0
102
RTVSPost2010PropOp34
 70
     1
102
RTVSPost2010Prop35
280
     0
102
RTVSPost2010PropOp35
 70
     1
102
RTVSPost2010Prop36
280
     0
102
RTVSPost2010PropOp36
 70
     1
102
RTVSPost2010Prop37
 90
       50
102
RTVSPost2010PropOp37
 70
     1
102
RTVSPost2010Prop38
140
0.0
102
RTVSPost2010PropOp38
 70
     1
102
RTVSPost2010Prop39
140
1.0
102
RTVSPost2010PropOp39
 70
     1
102
RTVSPost2010Prop40
 90
        0
102
RTVSPost2010PropOp40
 70
     1
102
RTVSPost2010Prop41ColorIndex
 90
       18
102
RTVSPost2010Prop41ColorRGB
 90
        0
102
RTVSPost2010PropOp41
 70
     1
102
RTVSPost2010Prop42
 90
       50
102
RTVSPost2010PropOp42
 70
     1
102
RTVSPost2010Prop43
 90
        3
102
RTVSPost2010PropOp43
 70
     1
102
RTVSPost2010Prop44ColorIndex
 90
        5
102
RTVSPost2010Prop44ColorRGB
 90
      255
102
RTVSPost2010PropOp44
 70
     1
102
RTVSPost2010Prop45
280
     0
102
RTVSPost2010PropOp45
 70
     1
102
RTVSPost2010Prop46
 90
       50
102
RTVSPost2010PropOp46
 70
     1
102
RTVSPost2010Prop47
 90
       50
102
RTVSPost2010PropOp47
 70
     1
102
RTVSPost2010Prop48
 90
       50
102
RTVSPost2010PropOp48
 70
     1
102
RTVSPost2010Prop49
280
     0
102
RTVSPost2010PropOp49
 70
     1
102
RTVSPost2010Prop50
 90
       50
102
RTVSPost2010PropOp50
 70
     1
102
RTVSPost2010Prop51ColorIndex
 90
      256
102
RTVSPost2010Prop51ColorRGB
 90
-16777216
102
RTVSPost2010PropOp51
 70
     0
102
RTVSPost2010Prop52
140
1.0
102
RTVSPost2010PropOp52
 70
     0
102
RTVSPost2010Prop53
 90
        2
102
RTVSPost2010PropOp53
 70
     1
102
RTVSPost2010Prop54
  1
strokes_ogs.tif
102
RTVSPost2010PropOp54
 70
     1
102
RTVSPost2010Prop55
280
     0
102
RTVSPost2010PropOp55
 70
     1
102
RTVSPost2010Prop56
140
1.0
102
RTVSPost2010PropOp56
 70
     1
102
RTVSPost2010Prop57
140
1.0
102
RTVSPost2010PropOp57
 70
     1
102
RTVSPropertyOp0
 70
     1
102
RTVSPropertyOp1
 70
     1
102
RTVSPropertyOp2
 70
     1
102
RTVSPropertyOp3
 70
     1
102
RTVSPropertyOp4
 70
     1
102
RTVSPropertyOp5
 70
     1
102
RTVSPropertyOp6
 70
     1
102
RTVSPropertyOp7
 70
     1
102
RTVSPropertyOp8
 70
     1
102
RTVSPropertyOp9
 70
     1
102
RTVSPropertyOp10
 70
     1
102
RTVSPropertyOp11
 70
     1
102
RTVSPropertyOp12
 70
     1
102
RTVSPropertyOp13
 70
     1
102
RTVSPropertyOp14
 70
     1
102
RTVSPropertyOp15
 70
     1
102
RTVSPropertyOp16
 70
     1
102
RTVSPropertyOp17
 70
     1
102
RTVSPropertyOp18
 70
     1
102
RTVSPropertyOp19
 70
     1
102
RTVSPropertyOp20
 70
     1
102
RTVSPropertyOp21
 70
     1
102
RTVSPropertyOp22
 70
     1
102
RTVSPropertyOp23
 70
     1
102
RTVSPropertyOp24
 70
     1
102
RTVSPropertyOp25
 70
     1
102
RTVSPropertyOp26
 70
     1
102
RTVSPropertyOp27
 70
     1
102
RTVSPropertyOp28
 70
     1
102
RTVSPropertyOp29
 70
     1
102
RTVSPropertyOp30
 70
     1
102
RTVSPropertyOp31
 70
     1
102
RTVSPropertyOp32
 70
     1
102
RTVSPropertyOp33
 70
     1
102
RTVSPropertyOp34
 70
     1
102
RTVSPropertyOp35
 70
     1
102
RTVSPropertyOp36
 70
     1
102
RTVSPropertyOp37
 70
     1
102
RTVSPropertyOp38
 70
     1
102
RTVSPropertyOp39
 70
     1
102
RTVSPropertyOp40
 70
     1
102
RTVSPropertyOp41
 70
     1
102
RTVSPropertyOp42
 70
     1
102
RTVSPropertyOp43
 70
     1
102
RTVSPropertyOp44
 70
     1
102
RTVSPropertyOp45
 70
     1
102
RTVSPropertyOp46
 70
     1
102
RTVSPropertyOp47
 70
     1
102
RTVSPropertyOp48
 70
     1
102
RTVSPropertyOp49
 70
     1
102
RTVSPropertyOp50
 70
     1
102
RTVSPropertyOp51
 70
     0
102
RTVSPropertyOp52
 70
     0
102
RTVSPropertyOp53
 70
     1
102
RTVSPropertyOp54
 70
     1
102
RTVSPropertyOp55
 70
     1
102
RTVSPropertyOp56
 70
     1
102
RTVSPropertyOp57
 70
     1
102
RTVSPropertyOp58
 70
     1
102
RTVSPropertyOp59
 70
     1
102
RTVSPropertyOp60
 70
     1
102
RTVSPropertyOp61
 70
     1
102
RTVSPropertyOp62
 70
     1
  0
XRECORD
  5
423
102
{ACAD_REACTORS
330
422
102
}
330
422
100
AcDbXrecord
280
     1
102
RTVSPost2010Prop28
280
     0
102
RTVSPost2010PropOp28
 70
     1
102
RTVSPost2010Prop29
280
     1
102
RTVSPost2010PropOp29
 70
     1
102
RTVSPost2010Prop30
280
     1
102
RTVSPost2010PropOp30
 70
     1
102
RTVSPost2010Prop31
280
     0
102
RTVSPost2010PropOp31
 70
     1
102
RTVSPost2010Prop32
280
     0
102
RTVSPost2010PropOp32
 70
     1
102
RTVSPost2010Prop33
280
     0
102
RTVSPost2010PropOp33
 70
     1
102
RTVSPost2010Prop34
280
     0
102
RTVSPost2010PropOp34
 70
     1
102
RTVSPost2010Prop35
280
     0
102
RTVSPost2010PropOp35
 70
     1
102
RTVSPost2010Prop36
280
     0
102
RTVSPost2010PropOp36
 70
     1
102
RTVSPost2010Prop37
 90
       50
102
RTVSPost2010PropOp37
 70
     0
102
RTVSPost2010Prop38
140
0.0
102
RTVSPost2010PropOp38
 70
     0
102
RTVSPost2010Prop39
140
1.0
102
RTVSPost2010PropOp39
 70
     0
102
RTVSPost2010Prop40
 90
        0
102
RTVSPost2010PropOp40
 70
     0
102
RTVSPost2010Prop41ColorIndex
 90
       18
102
RTVSPost2010Prop41ColorRGB
 90
        0
102
RTVSPost2010PropOp41
 70
     0
102
RTVSPost2010Prop42
 90
       50
102
RTVSPost2010PropOp42
 70
     0
102
RTVSPost2010Prop43
 90
        3
102
RTVSPost2010PropOp43
 70
     0
102
RTVSPost2010Prop44ColorIndex
 90
        5
102
RTVSPost2010Prop44ColorRGB
 90
      255
102
RTVSPost2010PropOp44
 70
     0
102
RTVSPost2010Prop45
280
     0
102
RTVSPost2010PropOp45
 70
     1
102
RTVSPost2010Prop46
 90
       50
102
RTVSPost2010PropOp46
 70
     0
102
RTVSPost2010Prop47
 90
       50
102
RTVSPost2010PropOp47
 70
     0
102
RTVSPost2010Prop48
 90
       50
102
RTVSPost2010PropOp48
 70
     0
102
RTVSPost2010Prop49
280
     0
102
RTVSPost2010PropOp49
 70
     1
102
RTVSPost2010Prop50
 90
       50
102
RTVSPost2010PropOp50
 70
     0
102
RTVSPost2010Prop51ColorIndex
 90
      256
102
RTVSPost2010Prop51ColorRGB
 90
-16777216
102
RTVSPost2010PropOp51
 70
     0
102
RTVSPost2010Prop52
140
1.0
102
RTVSPost2010PropOp52
 70
     0
102
RTVSPost2010Prop53
 90
        2
102
RTVSPost2010PropOp53
 70
     0
102
RTVSPost2010Prop54
  1
strokes_ogs.tif
102
RTVSPost2010PropOp54
 70
     0
102
RTVSPost2010Prop55
280
     0
102
RTVSPost2010PropOp55
 70
     1
102
RTVSPost2010Prop56
140
1.0
102
RTVSPost2010PropOp56
 70
     0
102
RTVSPost2010Prop57
140
1.0
102
RTVSPost2010PropOp57
 70
     0
102
RTVSPropertyOp0
 70
     0
102
RTVSPropertyOp1
 70
     0
102
RTVSPropertyOp2
 70
     0
102
RTVSPropertyOp3
 70
     0
102
RTVSPropertyOp4
 70
     0
102
RTVSPropertyOp5
 70
     0
102
RTVSPropertyOp6
 70
     0
102
RTVSPropertyOp7
 70
     0
102
RTVSPropertyOp8
 70
     0
102
RTVSPropertyOp9
 70
     0
102
RTVSPropertyOp10
 70
     0
102
RTVSPropertyOp11
 70
     0
102
RTVSPropertyOp12
 70
     0
102
RTVSPropertyOp13
 70
     0
102
RTVSPropertyOp14
 70
     2
102
RTVSPropertyOp15
 70
     0
102
RTVSPropertyOp16
 70
     0
102
RTVSPropertyOp17
 70
     0
102
RTVSPropertyOp18
 70
     0
102
RTVSPropertyOp19
 70
     0
102
RTVSPropertyOp20
 70
     0
102
RTVSPropertyOp21
 70
     0
102
RTVSPropertyOp22
 70
     0
102
RTVSPropertyOp23
 70
     0
102
RTVSPropertyOp24
 70
     0
102
RTVSPropertyOp25
 70
     0
102
RTVSPropertyOp26
 70
     0
102
RTVSPropertyOp27
 70
     0
102
RTVSPropertyOp28
 70
     1
102
RTVSPropertyOp29
 70
     1
102
RTVSPropertyOp30
 70
     1
102
RTVSPropertyOp31
 70
     1
102
RTVSPropertyOp32
 70
     1
102
RTVSPropertyOp33
 70
     1
102
RTVSPropertyOp34
 70
     1
102
RTVSPropertyOp35
 70
     1
102
RTVSPropertyOp36
 70
     1
102
RTVSPropertyOp37
 70
     0
102
RTVSPropertyOp38
 70
     0
102
RTVSPropertyOp39
 70
     0
102
RTVSPropertyOp40
 70
     0
102
RTVSPropertyOp41
 70
     0
102
RTVSPropertyOp42
 70
     0
102
RTVSPropertyOp43
 70
     0
102
RTVSPropertyOp44
 70
     0
102
RTVSPropertyOp45
 70
     1
102
RTVSPropertyOp46
 70
     0
102
RTVSPropertyOp47
 70
     0
102
RTVSPropertyOp48
 70
     0
102
RTVSPropertyOp49
 70
     1
102
RTVSPropertyOp50
 70
     0
102
RTVSPropertyOp51
 70
     0
102
RTVSPropertyOp52
 70
     0
102
RTVSPropertyOp53
 70
     0
102
RTVSPropertyOp54
 70
     0
102
RTVSPropertyOp55
 70
     1
102
RTVSPropertyOp56
 70
     0
102
RTVSPropertyOp57
 70
     0
102
RTVSPropertyOp58
 70
     0
102
RTVSPropertyOp59
 70
     0
102
RTVSPropertyOp60
 70
     0
102
RTVSPropertyOp61
 70
     0
102
RTVSPropertyOp62
 70
     0
  0
XRECORD
  5
411
102
{ACAD_REACTORS
330
410
102
}
330
410
100
AcDbXrecord
280
     1
102
RTVSPost2010Prop28
280
     0
102
RTVSPost2010PropOp28
 70
     1
102
RTVSPost2010Prop29
280
     1
102
RTVSPost2010PropOp29
 70
     1
102
RTVSPost2010Prop30
280
     1
102
RTVSPost2010PropOp30
 70
     1
102
RTVSPost2010Prop31
280
     0
102
RTVSPost2010PropOp31
 70
     1
102
RTVSPost2010Prop32
280
     0
102
RTVSPost2010PropOp32
 70
     1
102
RTVSPost2010Prop33
280
     0
102
RTVSPost2010PropOp33
 70
     1
102
RTVSPost2010Prop34
280
     0
102
RTVSPost2010PropOp34
 70
     1
102
RTVSPost2010Prop35
280
     0
102
RTVSPost2010PropOp35
 70
     1
102
RTVSPost2010Prop36
280
     0
102
RTVSPost2010PropOp36
 70
     1
102
RTVSPost2010Prop37
 90
       50
102
RTVSPost2010PropOp37
 70
     1
102
RTVSPost2010Prop38
140
0.0
102
RTVSPost2010PropOp38
 70
     1
102
RTVSPost2010Prop39
140
1.0
102
RTVSPost2010PropOp39
 70
     1
102
RTVSPost2010Prop40
 90
        0
102
RTVSPost2010PropOp40
 70
     1
102
RTVSPost2010Prop41ColorIndex
 90
       18
102
RTVSPost2010Prop41ColorRGB
 90
        0
102
RTVSPost2010PropOp41
 70
     1
102
RTVSPost2010Prop42
 90
       50
102
RTVSPost2010PropOp42
 70
     1
102
RTVSPost2010Prop43
 90
        3
102
RTVSPost2010PropOp43
 70
     1
102
RTVSPost2010Prop44ColorIndex
 90
        5
102
RTVSPost2010Prop44ColorRGB
 90
      255
102
RTVSPost2010PropOp44
 70
     1
102
RTVSPost2010Prop45
280
     0
102
RTVSPost2010PropOp45
 70
     1
102
RTVSPost2010Prop46
 90
       50
102
RTVSPost2010PropOp46
 70
     1
102
RTVSPost2010Prop47
 90
       50
102
RTVSPost2010PropOp47
 70
     1
102
RTVSPost2010Prop48
 90
       50
102
RTVSPost2010PropOp48
 70
     1
102
RTVSPost2010Prop49
280
     0
102
RTVSPost2010PropOp49
 70
     1
102
RTVSPost2010Prop50
 90
       50
102
RTVSPost2010PropOp50
 70
     1
102
RTVSPost2010Prop51ColorIndex
 90
      256
102
RTVSPost2010Prop51ColorRGB
 90
-16777216
102
RTVSPost2010PropOp51
 70
     0
102
RTVSPost2010Prop52
140
1.0
102
RTVSPost2010PropOp52
 70
     0
102
RTVSPost2010Prop53
 90
        2
102
RTVSPost2010PropOp53
 70
     1
102
RTVSPost2010Prop54
  1
strokes_ogs.tif
102
RTVSPost2010PropOp54
 70
     1
102
RTVSPost2010Prop55
280
     0
102
RTVSPost2010PropOp55
 70
     1
102
RTVSPost2010Prop56
140
1.0
102
RTVSPost2010PropOp56
 70
     1
102
RTVSPost2010Prop57
140
1.0
102
RTVSPost2010PropOp57
 70
     1
102
RTVSPropertyOp0
 70
     1
102
RTVSPropertyOp1
 70
     1
102
RTVSPropertyOp2
 70
     1
102
RTVSPropertyOp3
 70
     1
102
RTVSPropertyOp4
 70
     1
102
RTVSPropertyOp5
 70
     1
102
RTVSPropertyOp6
 70
     1
102
RTVSPropertyOp7
 70
     1
102
RTVSPropertyOp8
 70
     1
102
RTVSPropertyOp9
 70
     1
102
RTVSPropertyOp10
 70
     1
102
RTVSPropertyOp11
 70
     1
102
RTVSPropertyOp12
 70
     1
102
RTVSPropertyOp13
 70
     1
102
RTVSPropertyOp14
 70
     1
102
RTVSPropertyOp15
 70
     1
102
RTVSPropertyOp16
 70
     1
102
RTVSPropertyOp17
 70
     1
102
RTVSPropertyOp18
 70
     1
102
RTVSPropertyOp19
 70
     1
102
RTVSPropertyOp20
 70
     1
102
RTVSPropertyOp21
 70
     1
102
RTVSPropertyOp22
 70
     1
102
RTVSPropertyOp23
 70
     1
102
RTVSPropertyOp24
 70
     1
102
RTVSPropertyOp25
 70
     1
102
RTVSPropertyOp26
 70
     1
102
RTVSPropertyOp27
 70
     1
102
RTVSPropertyOp28
 70
     1
102
RTVSPropertyOp29
 70
     1
102
RTVSPropertyOp30
 70
     1
102
RTVSPropertyOp31
 70
     1
102
RTVSPropertyOp32
 70
     1
102
RTVSPropertyOp33
 70
     1
102
RTVSPropertyOp34
 70
     1
102
RTVSPropertyOp35
 70
     1
102
RTVSPropertyOp36
 70
     1
102
RTVSPropertyOp37
 70
     1
102
RTVSPropertyOp38
 70
     1
102
RTVSPropertyOp39
 70
     1
102
RTVSPropertyOp40
 70
     1
102
RTVSPropertyOp41
 70
     1
102
RTVSPropertyOp42
 70
     1
102
RTVSPropertyOp43
 70
     1
102
RTVSPropertyOp44
 70
     1
102
RTVSPropertyOp45
 70
     1
102
RTVSPropertyOp46
 70
     1
102
RTVSPropertyOp47
 70
     1
102
RTVSPropertyOp48
 70
     1
102
RTVSPropertyOp49
 70
     1
102
RTVSPropertyOp50
 70
     1
102
RTVSPropertyOp51
 70
     0
102
RTVSPropertyOp52
 70
     0
102
RTVSPropertyOp53
 70
     1
102
RTVSPropertyOp54
 70
     1
102
RTVSPropertyOp55
 70
     1
102
RTVSPropertyOp56
 70
     1
102
RTVSPropertyOp57
 70
     1
102
RTVSPropertyOp58
 70
     1
102
RTVSPropertyOp59
 70
     1
102
RTVSPropertyOp60
 70
     1
102
RTVSPropertyOp61
 70
     1
102
RTVSPropertyOp62
 70
     1
  0
XRECORD
  5
3F5
102
{ACAD_REACTORS
330
3F4
102
}
330
3F4
100
AcDbXrecord
280
     1
102
RTVSPost2010Prop28
280
     0
102
RTVSPost2010PropOp28
 70
     1
102
RTVSPost2010Prop29
280
     1
102
RTVSPost2010PropOp29
 70
     1
102
RTVSPost2010Prop30
280
     1
102
RTVSPost2010PropOp30
 70
     1
102
RTVSPost2010Prop31
280
     0
102
RTVSPost2010PropOp31
 70
     1
102
RTVSPost2010Prop32
280
     0
102
RTVSPost2010PropOp32
 70
     1
102
RTVSPost2010Prop33
280
     0
102
RTVSPost2010PropOp33
 70
     1
102
RTVSPost2010Prop34
280
     0
102
RTVSPost2010PropOp34
 70
     1
102
RTVSPost2010Prop35
280
     0
102
RTVSPost2010PropOp35
 70
     1
102
RTVSPost2010Prop36
280
     0
102
RTVSPost2010PropOp36
 70
     1
102
RTVSPost2010Prop37
 90
       50
102
RTVSPost2010PropOp37
 70
     1
102
RTVSPost2010Prop38
140
0.0
102
RTVSPost2010PropOp38
 70
     1
102
RTVSPost2010Prop39
140
1.0
102
RTVSPost2010PropOp39
 70
     1
102
RTVSPost2010Prop40
 90
        0
102
RTVSPost2010PropOp40
 70
     1
102
RTVSPost2010Prop41ColorIndex
 90
       18
102
RTVSPost2010Prop41ColorRGB
 90
        0
102
RTVSPost2010PropOp41
 70
     1
102
RTVSPost2010Prop42
 90
       50
102
RTVSPost2010PropOp42
 70
     1
102
RTVSPost2010Prop43
 90
        3
102
RTVSPost2010PropOp43
 70
     1
102
RTVSPost2010Prop44ColorIndex
 90
        5
102
RTVSPost2010Prop44ColorRGB
 90
      255
102
RTVSPost2010PropOp44
 70
     1
102
RTVSPost2010Prop45
280
     0
102
RTVSPost2010PropOp45
 70
     1
102
RTVSPost2010Prop46
 90
       50
102
RTVSPost2010PropOp46
 70
     1
102
RTVSPost2010Prop47
 90
       50
102
RTVSPost2010PropOp47
 70
     1
102
RTVSPost2010Prop48
 90
       50
102
RTVSPost2010PropOp48
 70
     1
102
RTVSPost2010Prop49
280
     0
102
RTVSPost2010PropOp49
 70
     1
102
RTVSPost2010Prop50
 90
       50
102
RTVSPost2010PropOp50
 70
     1
102
RTVSPost2010Prop51ColorIndex
 90
      256
102
RTVSPost2010Prop51ColorRGB
 90
-16777216
102
RTVSPost2010PropOp51
 70
     0
102
RTVSPost2010Prop52
140
1.0
102
RTVSPost2010PropOp52
 70
     0
102
RTVSPost2010Prop53
 90
        2
102
RTVSPost2010PropOp53
 70
     1
102
RTVSPost2010Prop54
  1
strokes_ogs.tif
102
RTVSPost2010PropOp54
 70
     1
102
RTVSPost2010Prop55
280
     0
102
RTVSPost2010PropOp55
 70
     1
102
RTVSPost2010Prop56
140
1.0
102
RTVSPost2010PropOp56
 70
     1
102
RTVSPost2010Prop57
140
1.0
102
RTVSPost2010PropOp57
 70
     1
102
RTVSPropertyOp0
 70
     1
102
RTVSPropertyOp1
 70
     1
102
RTVSPropertyOp2
 70
     1
102
RTVSPropertyOp3
 70
     1
102
RTVSPropertyOp4
 70
     1
102
RTVSPropertyOp5
 70
     1
102
RTVSPropertyOp6
 70
     1
102
RTVSPropertyOp7
 70
     1
102
RTVSPropertyOp8
 70
     1
102
RTVSPropertyOp9
 70
     1
102
RTVSPropertyOp10
 70
     1
102
RTVSPropertyOp11
 70
     1
102
RTVSPropertyOp12
 70
     1
102
RTVSPropertyOp13
 70
     1
102
RTVSPropertyOp14
 70
     1
102
RTVSPropertyOp15
 70
     1
102
RTVSPropertyOp16
 70
     1
102
RTVSPropertyOp17
 70
     1
102
RTVSPropertyOp18
 70
     1
102
RTVSPropertyOp19
 70
     1
102
RTVSPropertyOp20
 70
     1
102
RTVSPropertyOp21
 70
     1
102
RTVSPropertyOp22
 70
     1
102
RTVSPropertyOp23
 70
     1
102
RTVSPropertyOp24
 70
     1
102
RTVSPropertyOp25
 70
     1
102
RTVSPropertyOp26
 70
     1
102
RTVSPropertyOp27
 70
     1
102
RTVSPropertyOp28
 70
     1
102
RTVSPropertyOp29
 70
     1
102
RTVSPropertyOp30
 70
     1
102
RTVSPropertyOp31
 70
     1
102
RTVSPropertyOp32
 70
     1
102
RTVSPropertyOp33
 70
     1
102
RTVSPropertyOp34
 70
     1
102
RTVSPropertyOp35
 70
     1
102
RTVSPropertyOp36
 70
     1
102
RTVSPropertyOp37
 70
     1
102
RTVSPropertyOp38
 70
     1
102
RTVSPropertyOp39
 70
     1
102
RTVSPropertyOp40
 70
     1
102
RTVSPropertyOp41
 70
     1
102
RTVSPropertyOp42
 70
     1
102
RTVSPropertyOp43
 70
     1
102
RTVSPropertyOp44
 70
     1
102
RTVSPropertyOp45
 70
     1
102
RTVSPropertyOp46
 70
     1
102
RTVSPropertyOp47
 70
     1
102
RTVSPropertyOp48
 70
     1
102
RTVSPropertyOp49
 70
     1
102
RTVSPropertyOp50
 70
     1
102
RTVSPropertyOp51
 70
     0
102
RTVSPropertyOp52
 70
     0
102
RTVSPropertyOp53
 70
     1
102
RTVSPropertyOp54
 70
     1
102
RTVSPropertyOp55
 70
     1
102
RTVSPropertyOp56
 70
     1
102
RTVSPropertyOp57
 70
     1
102
RTVSPropertyOp58
 70
     1
102
RTVSPropertyOp59
 70
     1
102
RTVSPropertyOp60
 70
     1
102
RTVSPropertyOp61
 70
     1
102
RTVSPropertyOp62
 70
     1
  0
XRECORD
  5
3F7
102
{ACAD_REACTORS
330
3F6
102
}
330
3F6
100
AcDbXrecord
280
     1
102
RTVSPost2010Prop28
280
     0
102
RTVSPost2010PropOp28
 70
     1
102
RTVSPost2010Prop29
280
     1
102
RTVSPost2010PropOp29
 70
     1
102
RTVSPost2010Prop30
280
     1
102
RTVSPost2010PropOp30
 70
     1
102
RTVSPost2010Prop31
280
     0
102
RTVSPost2010PropOp31
 70
     1
102
RTVSPost2010Prop32
280
     0
102
RTVSPost2010PropOp32
 70
     1
102
RTVSPost2010Prop33
280
     0
102
RTVSPost2010PropOp33
 70
     1
102
RTVSPost2010Prop34
280
     0
102
RTVSPost2010PropOp34
 70
     1
102
RTVSPost2010Prop35
280
     0
102
RTVSPost2010PropOp35
 70
     1
102
RTVSPost2010Prop36
280
     0
102
RTVSPost2010PropOp36
 70
     1
102
RTVSPost2010Prop37
 90
       50
102
RTVSPost2010PropOp37
 70
     1
102
RTVSPost2010Prop38
140
0.0
102
RTVSPost2010PropOp38
 70
     1
102
RTVSPost2010Prop39
140
1.0
102
RTVSPost2010PropOp39
 70
     1
102
RTVSPost2010Prop40
 90
        0
102
RTVSPost2010PropOp40
 70
     1
102
RTVSPost2010Prop41ColorIndex
 90
       18
102
RTVSPost2010Prop41ColorRGB
 90
        0
102
RTVSPost2010PropOp41
 70
     1
102
RTVSPost2010Prop42
 90
       50
102
RTVSPost2010PropOp42
 70
     1
102
RTVSPost2010Prop43
 90
        3
102
RTVSPost2010PropOp43
 70
     1
102
RTVSPost2010Prop44ColorIndex
 90
        5
102
RTVSPost2010Prop44ColorRGB
 90
      255
102
RTVSPost2010PropOp44
 70
     1
102
RTVSPost2010Prop45
280
     0
102
RTVSPost2010PropOp45
 70
     1
102
RTVSPost2010Prop46
 90
       50
102
RTVSPost2010PropOp46
 70
     1
102
RTVSPost2010Prop47
 90
       50
102
RTVSPost2010PropOp47
 70
     1
102
RTVSPost2010Prop48
 90
       50
102
RTVSPost2010PropOp48
 70
     1
102
RTVSPost2010Prop49
280
     0
102
RTVSPost2010PropOp49
 70
     1
102
RTVSPost2010Prop50
 90
       50
102
RTVSPost2010PropOp50
 70
     1
102
RTVSPost2010Prop51ColorIndex
 90
      256
102
RTVSPost2010Prop51ColorRGB
 90
-16777216
102
RTVSPost2010PropOp51
 70
     0
102
RTVSPost2010Prop52
140
1.0
102
RTVSPost2010PropOp52
 70
     0
102
RTVSPost2010Prop53
 90
        2
102
RTVSPost2010PropOp53
 70
     1
102
RTVSPost2010Prop54
  1
strokes_ogs.tif
102
RTVSPost2010PropOp54
 70
     1
102
RTVSPost2010Prop55
280
     0
102
RTVSPost2010PropOp55
 70
     1
102
RTVSPost2010Prop56
140
1.0
102
RTVSPost2010PropOp56
 70
     1
102
RTVSPost2010Prop57
140
1.0
102
RTVSPost2010PropOp57
 70
     1
102
RTVSPropertyOp0
 70
     1
102
RTVSPropertyOp1
 70
     1
102
RTVSPropertyOp2
 70
     1
102
RTVSPropertyOp3
 70
     1
102
RTVSPropertyOp4
 70
     1
102
RTVSPropertyOp5
 70
     1
102
RTVSPropertyOp6
 70
     1
102
RTVSPropertyOp7
 70
     1
102
RTVSPropertyOp8
 70
     1
102
RTVSPropertyOp9
 70
     1
102
RTVSPropertyOp10
 70
     1
102
RTVSPropertyOp11
 70
     1
102
RTVSPropertyOp12
 70
     1
102
RTVSPropertyOp13
 70
     1
102
RTVSPropertyOp14
 70
     1
102
RTVSPropertyOp15
 70
     1
102
RTVSPropertyOp16
 70
     1
102
RTVSPropertyOp17
 70
     1
102
RTVSPropertyOp18
 70
     1
102
RTVSPropertyOp19
 70
     1
102
RTVSPropertyOp20
 70
     1
102
RTVSPropertyOp21
 70
     1
102
RTVSPropertyOp22
 70
     1
102
RTVSPropertyOp23
 70
     1
102
RTVSPropertyOp24
 70
     1
102
RTVSPropertyOp25
 70
     1
102
RTVSPropertyOp26
 70
     1
102
RTVSPropertyOp27
 70
     1
102
RTVSPropertyOp28
 70
     1
102
RTVSPropertyOp29
 70
     1
102
RTVSPropertyOp30
 70
     1
102
RTVSPropertyOp31
 70
     1
102
RTVSPropertyOp32
 70
     1
102
RTVSPropertyOp33
 70
     1
102
RTVSPropertyOp34
 70
     1
102
RTVSPropertyOp35
 70
     1
102
RTVSPropertyOp36
 70
     1
102
RTVSPropertyOp37
 70
     1
102
RTVSPropertyOp38
 70
     1
102
RTVSPropertyOp39
 70
     1
102
RTVSPropertyOp40
 70
     1
102
RTVSPropertyOp41
 70
     1
102
RTVSPropertyOp42
 70
     1
102
RTVSPropertyOp43
 70
     1
102
RTVSPropertyOp44
 70
     1
102
RTVSPropertyOp45
 70
     1
102
RTVSPropertyOp46
 70
     1
102
RTVSPropertyOp47
 70
     1
102
RTVSPropertyOp48
 70
     1
102
RTVSPropertyOp49
 70
     1
102
RTVSPropertyOp50
 70
     1
102
RTVSPropertyOp51
 70
     0
102
RTVSPropertyOp52
 70
     0
102
RTVSPropertyOp53
 70
     1
102
RTVSPropertyOp54
 70
     1
102
RTVSPropertyOp55
 70
     1
102
RTVSPropertyOp56
 70
     1
102
RTVSPropertyOp57
 70
     1
102
RTVSPropertyOp58
 70
     1
102
RTVSPropertyOp59
 70
     1
102
RTVSPropertyOp60
 70
     1
102
RTVSPropertyOp61
 70
     1
102
RTVSPropertyOp62
 70
     1
  0
XRECORD
  5
3F9
102
{ACAD_REACTORS
330
3F8
102
}
330
3F8
100
AcDbXrecord
280
     1
102
RTVSPost2010Prop28
280
     0
102
RTVSPost2010PropOp28
 70
     1
102
RTVSPost2010Prop29
280
     1
102
RTVSPost2010PropOp29
 70
     1
102
RTVSPost2010Prop30
280
     1
102
RTVSPost2010PropOp30
 70
     1
102
RTVSPost2010Prop31
280
     0
102
RTVSPost2010PropOp31
 70
     1
102
RTVSPost2010Prop32
280
     0
102
RTVSPost2010PropOp32
 70
     1
102
RTVSPost2010Prop33
280
     0
102
RTVSPost2010PropOp33
 70
     1
102
RTVSPost2010Prop34
280
     0
102
RTVSPost2010PropOp34
 70
     1
102
RTVSPost2010Prop35
280
     0
102
RTVSPost2010PropOp35
 70
     1
102
RTVSPost2010Prop36
280
     0
102
RTVSPost2010PropOp36
 70
     1
102
RTVSPost2010Prop37
 90
       50
102
RTVSPost2010PropOp37
 70
     1
102
RTVSPost2010Prop38
140
0.0
102
RTVSPost2010PropOp38
 70
     1
102
RTVSPost2010Prop39
140
1.0
102
RTVSPost2010PropOp39
 70
     1
102
RTVSPost2010Prop40
 90
        0
102
RTVSPost2010PropOp40
 70
     1
102
RTVSPost2010Prop41ColorIndex
 90
       18
102
RTVSPost2010Prop41ColorRGB
 90
        0
102
RTVSPost2010PropOp41
 70
     1
102
RTVSPost2010Prop42
 90
       50
102
RTVSPost2010PropOp42
 70
     1
102
RTVSPost2010Prop43
 90
        3
102
RTVSPost2010PropOp43
 70
     1
102
RTVSPost2010Prop44ColorIndex
 90
        5
102
RTVSPost2010Prop44ColorRGB
 90
      255
102
RTVSPost2010PropOp44
 70
     1
102
RTVSPost2010Prop45
280
     0
102
RTVSPost2010PropOp45
 70
     1
102
RTVSPost2010Prop46
 90
       50
102
RTVSPost2010PropOp46
 70
     1
102
RTVSPost2010Prop47
 90
       50
102
RTVSPost2010PropOp47
 70
     1
102
RTVSPost2010Prop48
 90
       50
102
RTVSPost2010PropOp48
 70
     1
102
RTVSPost2010Prop49
280
     0
102
RTVSPost2010PropOp49
 70
     1
102
RTVSPost2010Prop50
 90
       50
102
RTVSPost2010PropOp50
 70
     1
102
RTVSPost2010Prop51ColorIndex
 90
      256
102
RTVSPost2010Prop51ColorRGB
 90
-16777216
102
RTVSPost2010PropOp51
 70
     0
102
RTVSPost2010Prop52
140
1.0
102
RTVSPost2010PropOp52
 70
     0
102
RTVSPost2010Prop53
 90
        2
102
RTVSPost2010PropOp53
 70
     1
102
RTVSPost2010Prop54
  1
strokes_ogs.tif
102
RTVSPost2010PropOp54
 70
     1
102
RTVSPost2010Prop55
280
     0
102
RTVSPost2010PropOp55
 70
     1
102
RTVSPost2010Prop56
140
1.0
102
RTVSPost2010PropOp56
 70
     1
102
RTVSPost2010Prop57
140
1.0
102
RTVSPost2010PropOp57
 70
     1
102
RTVSPropertyOp0
 70
     1
102
RTVSPropertyOp1
 70
     1
102
RTVSPropertyOp2
 70
     1
102
RTVSPropertyOp3
 70
     1
102
RTVSPropertyOp4
 70
     1
102
RTVSPropertyOp5
 70
     1
102
RTVSPropertyOp6
 70
     1
102
RTVSPropertyOp7
 70
     1
102
RTVSPropertyOp8
 70
     1
102
RTVSPropertyOp9
 70
     1
102
RTVSPropertyOp10
 70
     1
102
RTVSPropertyOp11
 70
     1
102
RTVSPropertyOp12
 70
     1
102
RTVSPropertyOp13
 70
     1
102
RTVSPropertyOp14
 70
     1
102
RTVSPropertyOp15
 70
     1
102
RTVSPropertyOp16
 70
     1
102
RTVSPropertyOp17
 70
     1
102
RTVSPropertyOp18
 70
     1
102
RTVSPropertyOp19
 70
     1
102
RTVSPropertyOp20
 70
     1
102
RTVSPropertyOp21
 70
     1
102
RTVSPropertyOp22
 70
     1
102
RTVSPropertyOp23
 70
     1
102
RTVSPropertyOp24
 70
     1
102
RTVSPropertyOp25
 70
     1
102
RTVSPropertyOp26
 70
     1
102
RTVSPropertyOp27
 70
     1
102
RTVSPropertyOp28
 70
     1
102
RTVSPropertyOp29
 70
     1
102
RTVSPropertyOp30
 70
     1
102
RTVSPropertyOp31
 70
     1
102
RTVSPropertyOp32
 70
     1
102
RTVSPropertyOp33
 70
     1
102
RTVSPropertyOp34
 70
     1
102
RTVSPropertyOp35
 70
     1
102
RTVSPropertyOp36
 70
     1
102
RTVSPropertyOp37
 70
     1
102
RTVSPropertyOp38
 70
     1
102
RTVSPropertyOp39
 70
     1
102
RTVSPropertyOp40
 70
     1
102
RTVSPropertyOp41
 70
     1
102
RTVSPropertyOp42
 70
     1
102
RTVSPropertyOp43
 70
     1
102
RTVSPropertyOp44
 70
     1
102
RTVSPropertyOp45
 70
     1
102
RTVSPropertyOp46
 70
     1
102
RTVSPropertyOp47
 70
     1
102
RTVSPropertyOp48
 70
     1
102
RTVSPropertyOp49
 70
     1
102
RTVSPropertyOp50
 70
     1
102
RTVSPropertyOp51
 70
     0
102
RTVSPropertyOp52
 70
     0
102
RTVSPropertyOp53
 70
     1
102
RTVSPropertyOp54
 70
     1
102
RTVSPropertyOp55
 70
     1
102
RTVSPropertyOp56
 70
     1
102
RTVSPropertyOp57
 70
     1
102
RTVSPropertyOp58
 70
     1
102
RTVSPropertyOp59
 70
     1
102
RTVSPropertyOp60
 70
     1
102
RTVSPropertyOp61
 70
     1
102
RTVSPropertyOp62
 70
     1
  0
XRECORD
  5
3FB
102
{ACAD_REACTORS
330
3FA
102
}
330
3FA
100
AcDbXrecord
280
     1
102
RTVSPost2010Prop28
280
     0
102
RTVSPost2010PropOp28
 70
     1
102
RTVSPost2010Prop29
280
     1
102
RTVSPost2010PropOp29
 70
     1
102
RTVSPost2010Prop30
280
     1
102
RTVSPost2010PropOp30
 70
     1
102
RTVSPost2010Prop31
280
     0
102
RTVSPost2010PropOp31
 70
     1
102
RTVSPost2010Prop32
280
     0
102
RTVSPost2010PropOp32
 70
     1
102
RTVSPost2010Prop33
280
     0
102
RTVSPost2010PropOp33
 70
     1
102
RTVSPost2010Prop34
280
     0
102
RTVSPost2010PropOp34
 70
     1
102
RTVSPost2010Prop35
280
     0
102
RTVSPost2010PropOp35
 70
     1
102
RTVSPost2010Prop36
280
     0
102
RTVSPost2010PropOp36
 70
     1
102
RTVSPost2010Prop37
 90
       50
102
RTVSPost2010PropOp37
 70
     1
102
RTVSPost2010Prop38
140
0.0
102
RTVSPost2010PropOp38
 70
     1
102
RTVSPost2010Prop39
140
1.0
102
RTVSPost2010PropOp39
 70
     1
102
RTVSPost2010Prop40
 90
        0
102
RTVSPost2010PropOp40
 70
     1
102
RTVSPost2010Prop41ColorIndex
 90
       18
102
RTVSPost2010Prop41ColorRGB
 90
        0
102
RTVSPost2010PropOp41
 70
     1
102
RTVSPost2010Prop42
 90
       50
102
RTVSPost2010PropOp42
 70
     1
102
RTVSPost2010Prop43
 90
        3
102
RTVSPost2010PropOp43
 70
     1
102
RTVSPost2010Prop44ColorIndex
 90
        5
102
RTVSPost2010Prop44ColorRGB
 90
      255
102
RTVSPost2010PropOp44
 70
     1
102
RTVSPost2010Prop45
280
     0
102
RTVSPost2010PropOp45
 70
     1
102
RTVSPost2010Prop46
 90
       50
102
RTVSPost2010PropOp46
 70
     1
102
RTVSPost2010Prop47
 90
       50
102
RTVSPost2010PropOp47
 70
     1
102
RTVSPost2010Prop48
 90
       50
102
RTVSPost2010PropOp48
 70
     1
102
RTVSPost2010Prop49
280
     0
102
RTVSPost2010PropOp49
 70
     1
102
RTVSPost2010Prop50
 90
       50
102
RTVSPost2010PropOp50
 70
     1
102
RTVSPost2010Prop51ColorIndex
 90
      256
102
RTVSPost2010Prop51ColorRGB
 90
-16777216
102
RTVSPost2010PropOp51
 70
     0
102
RTVSPost2010Prop52
140
1.0
102
RTVSPost2010PropOp52
 70
     0
102
RTVSPost2010Prop53
 90
        2
102
RTVSPost2010PropOp53
 70
     1
102
RTVSPost2010Prop54
  1
strokes_ogs.tif
102
RTVSPost2010PropOp54
 70
     1
102
RTVSPost2010Prop55
280
     0
102
RTVSPost2010PropOp55
 70
     1
102
RTVSPost2010Prop56
140
1.0
102
RTVSPost2010PropOp56
 70
     1
102
RTVSPost2010Prop57
140
1.0
102
RTVSPost2010PropOp57
 70
     1
102
RTVSPropertyOp0
 70
     1
102
RTVSPropertyOp1
 70
     1
102
RTVSPropertyOp2
 70
     1
102
RTVSPropertyOp3
 70
     1
102
RTVSPropertyOp4
 70
     1
102
RTVSPropertyOp5
 70
     1
102
RTVSPropertyOp6
 70
     1
102
RTVSPropertyOp7
 70
     1
102
RTVSPropertyOp8
 70
     1
102
RTVSPropertyOp9
 70
     1
102
RTVSPropertyOp10
 70
     1
102
RTVSPropertyOp11
 70
     1
102
RTVSPropertyOp12
 70
     1
102
RTVSPropertyOp13
 70
     1
102
RTVSPropertyOp14
 70
     1
102
RTVSPropertyOp15
 70
     1
102
RTVSPropertyOp16
 70
     1
102
RTVSPropertyOp17
 70
     1
102
RTVSPropertyOp18
 70
     1
102
RTVSPropertyOp19
 70
     1
102
RTVSPropertyOp20
 70
     1
102
RTVSPropertyOp21
 70
     1
102
RTVSPropertyOp22
 70
     1
102
RTVSPropertyOp23
 70
     1
102
RTVSPropertyOp24
 70
     1
102
RTVSPropertyOp25
 70
     1
102
RTVSPropertyOp26
 70
     1
102
RTVSPropertyOp27
 70
     1
102
RTVSPropertyOp28
 70
     1
102
RTVSPropertyOp29
 70
     1
102
RTVSPropertyOp30
 70
     1
102
RTVSPropertyOp31
 70
     1
102
RTVSPropertyOp32
 70
     1
102
RTVSPropertyOp33
 70
     1
102
RTVSPropertyOp34
 70
     1
102
RTVSPropertyOp35
 70
     1
102
RTVSPropertyOp36
 70
     1
102
RTVSPropertyOp37
 70
     1
102
RTVSPropertyOp38
 70
     1
102
RTVSPropertyOp39
 70
     1
102
RTVSPropertyOp40
 70
     1
102
RTVSPropertyOp41
 70
     1
102
RTVSPropertyOp42
 70
     1
102
RTVSPropertyOp43
 70
     1
102
RTVSPropertyOp44
 70
     1
102
RTVSPropertyOp45
 70
     1
102
RTVSPropertyOp46
 70
     1
102
RTVSPropertyOp47
 70
     1
102
RTVSPropertyOp48
 70
     1
102
RTVSPropertyOp49
 70
     1
102
RTVSPropertyOp50
 70
     1
102
RTVSPropertyOp51
 70
     0
102
RTVSPropertyOp52
 70
     0
102
RTVSPropertyOp53
 70
     1
102
RTVSPropertyOp54
 70
     1
102
RTVSPropertyOp55
 70
     1
102
RTVSPropertyOp56
 70
     1
102
RTVSPropertyOp57
 70
     1
102
RTVSPropertyOp58
 70
     1
102
RTVSPropertyOp59
 70
     1
102
RTVSPropertyOp60
 70
     1
102
RTVSPropertyOp61
 70
     1
102
RTVSPropertyOp62
 70
     1
  0
XRECORD
  5
403
102
{ACAD_REACTORS
330
402
102
}
330
402
100
AcDbXrecord
280
     1
102
RTVSPost2010Prop28
280
     0
102
RTVSPost2010PropOp28
 70
     1
102
RTVSPost2010Prop29
280
     1
102
RTVSPost2010PropOp29
 70
     1
102
RTVSPost2010Prop30
280
     1
102
RTVSPost2010PropOp30
 70
     1
102
RTVSPost2010Prop31
280
     0
102
RTVSPost2010PropOp31
 70
     1
102
RTVSPost2010Prop32
280
     0
102
RTVSPost2010PropOp32
 70
     1
102
RTVSPost2010Prop33
280
     0
102
RTVSPost2010PropOp33
 70
     1
102
RTVSPost2010Prop34
280
     0
102
RTVSPost2010PropOp34
 70
     1
102
RTVSPost2010Prop35
280
     0
102
RTVSPost2010PropOp35
 70
     1
102
RTVSPost2010Prop36
280
     0
102
RTVSPost2010PropOp36
 70
     1
102
RTVSPost2010Prop37
 90
       50
102
RTVSPost2010PropOp37
 70
     1
102
RTVSPost2010Prop38
140
0.0
102
RTVSPost2010PropOp38
 70
     1
102
RTVSPost2010Prop39
140
1.0
102
RTVSPost2010PropOp39
 70
     1
102
RTVSPost2010Prop40
 90
        0
102
RTVSPost2010PropOp40
 70
     1
102
RTVSPost2010Prop41ColorIndex
 90
       18
102
RTVSPost2010Prop41ColorRGB
 90
        0
102
RTVSPost2010PropOp41
 70
     1
102
RTVSPost2010Prop42
 90
       50
102
RTVSPost2010PropOp42
 70
     1
102
RTVSPost2010Prop43
 90
        3
102
RTVSPost2010PropOp43
 70
     1
102
RTVSPost2010Prop44ColorIndex
 90
        5
102
RTVSPost2010Prop44ColorRGB
 90
      255
102
RTVSPost2010PropOp44
 70
     1
102
RTVSPost2010Prop45
280
     0
102
RTVSPost2010PropOp45
 70
     1
102
RTVSPost2010Prop46
 90
       50
102
RTVSPost2010PropOp46
 70
     1
102
RTVSPost2010Prop47
 90
       50
102
RTVSPost2010PropOp47
 70
     1
102
RTVSPost2010Prop48
 90
       50
102
RTVSPost2010PropOp48
 70
     1
102
RTVSPost2010Prop49
280
     0
102
RTVSPost2010PropOp49
 70
     1
102
RTVSPost2010Prop50
 90
       50
102
RTVSPost2010PropOp50
 70
     1
102
RTVSPost2010Prop51ColorIndex
 90
      256
102
RTVSPost2010Prop51ColorRGB
 90
-16777216
102
RTVSPost2010PropOp51
 70
     0
102
RTVSPost2010Prop52
140
1.0
102
RTVSPost2010PropOp52
 70
     0
102
RTVSPost2010Prop53
 90
        2
102
RTVSPost2010PropOp53
 70
     1
102
RTVSPost2010Prop54
  1
strokes_ogs.tif
102
RTVSPost2010PropOp54
 70
     1
102
RTVSPost2010Prop55
280
     0
102
RTVSPost2010PropOp55
 70
     1
102
RTVSPost2010Prop56
140
1.0
102
RTVSPost2010PropOp56
 70
     1
102
RTVSPost2010Prop57
140
1.0
102
RTVSPost2010PropOp57
 70
     1
102
RTVSPropertyOp0
 70
     1
102
RTVSPropertyOp1
 70
     1
102
RTVSPropertyOp2
 70
     1
102
RTVSPropertyOp3
 70
     1
102
RTVSPropertyOp4
 70
     1
102
RTVSPropertyOp5
 70
     1
102
RTVSPropertyOp6
 70
     1
102
RTVSPropertyOp7
 70
     1
102
RTVSPropertyOp8
 70
     1
102
RTVSPropertyOp9
 70
     1
102
RTVSPropertyOp10
 70
     1
102
RTVSPropertyOp11
 70
     1
102
RTVSPropertyOp12
 70
     1
102
RTVSPropertyOp13
 70
     1
102
RTVSPropertyOp14
 70
     1
102
RTVSPropertyOp15
 70
     1
102
RTVSPropertyOp16
 70
     1
102
RTVSPropertyOp17
 70
     1
102
RTVSPropertyOp18
 70
     1
102
RTVSPropertyOp19
 70
     1
102
RTVSPropertyOp20
 70
     1
102
RTVSPropertyOp21
 70
     1
102
RTVSPropertyOp22
 70
     1
102
RTVSPropertyOp23
 70
     1
102
RTVSPropertyOp24
 70
     1
102
RTVSPropertyOp25
 70
     1
102
RTVSPropertyOp26
 70
     1
102
RTVSPropertyOp27
 70
     1
102
RTVSPropertyOp28
 70
     1
102
RTVSPropertyOp29
 70
     1
102
RTVSPropertyOp30
 70
     1
102
RTVSPropertyOp31
 70
     1
102
RTVSPropertyOp32
 70
     1
102
RTVSPropertyOp33
 70
     1
102
RTVSPropertyOp34
 70
     1
102
RTVSPropertyOp35
 70
     1
102
RTVSPropertyOp36
 70
     1
102
RTVSPropertyOp37
 70
     1
102
RTVSPropertyOp38
 70
     1
102
RTVSPropertyOp39
 70
     1
102
RTVSPropertyOp40
 70
     1
102
RTVSPropertyOp41
 70
     1
102
RTVSPropertyOp42
 70
     1
102
RTVSPropertyOp43
 70
     1
102
RTVSPropertyOp44
 70
     1
102
RTVSPropertyOp45
 70
     1
102
RTVSPropertyOp46
 70
     1
102
RTVSPropertyOp47
 70
     1
102
RTVSPropertyOp48
 70
     1
102
RTVSPropertyOp49
 70
     1
102
RTVSPropertyOp50
 70
     1
102
RTVSPropertyOp51
 70
     0
102
RTVSPropertyOp52
 70
     0
102
RTVSPropertyOp53
 70
     1
102
RTVSPropertyOp54
 70
     1
102
RTVSPropertyOp55
 70
     1
102
RTVSPropertyOp56
 70
     1
102
RTVSPropertyOp57
 70
     1
102
RTVSPropertyOp58
 70
     1
102
RTVSPropertyOp59
 70
     1
102
RTVSPropertyOp60
 70
     1
102
RTVSPropertyOp61
 70
     1
102
RTVSPropertyOp62
 70
     1
  0
XRECORD
  5
41F
102
{ACAD_REACTORS
330
41E
102
}
330
41E
100
AcDbXrecord
280
     1
102
RTVSPost2010Prop28
280
     0
102
RTVSPost2010PropOp28
 70
     1
102
RTVSPost2010Prop29
280
     1
102
RTVSPost2010PropOp29
 70
     1
102
RTVSPost2010Prop30
280
     1
102
RTVSPost2010PropOp30
 70
     1
102
RTVSPost2010Prop31
280
     0
102
RTVSPost2010PropOp31
 70
     1
102
RTVSPost2010Prop32
280
     0
102
RTVSPost2010PropOp32
 70
     1
102
RTVSPost2010Prop33
280
     0
102
RTVSPost2010PropOp33
 70
     1
102
RTVSPost2010Prop34
280
     0
102
RTVSPost2010PropOp34
 70
     1
102
RTVSPost2010Prop35
280
     0
102
RTVSPost2010PropOp35
 70
     1
102
RTVSPost2010Prop36
280
     0
102
RTVSPost2010PropOp36
 70
     1
102
RTVSPost2010Prop37
 90
       50
102
RTVSPost2010PropOp37
 70
     0
102
RTVSPost2010Prop38
140
0.0
102
RTVSPost2010PropOp38
 70
     0
102
RTVSPost2010Prop39
140
1.0
102
RTVSPost2010PropOp39
 70
     0
102
RTVSPost2010Prop40
 90
        0
102
RTVSPost2010PropOp40
 70
     0
102
RTVSPost2010Prop41ColorIndex
 90
       18
102
RTVSPost2010Prop41ColorRGB
 90
        0
102
RTVSPost2010PropOp41
 70
     0
102
RTVSPost2010Prop42
 90
       50
102
RTVSPost2010PropOp42
 70
     0
102
RTVSPost2010Prop43
 90
        3
102
RTVSPost2010PropOp43
 70
     0
102
RTVSPost2010Prop44ColorIndex
 90
        5
102
RTVSPost2010Prop44ColorRGB
 90
      255
102
RTVSPost2010PropOp44
 70
     0
102
RTVSPost2010Prop45
280
     0
102
RTVSPost2010PropOp45
 70
     1
102
RTVSPost2010Prop46
 90
       50
102
RTVSPost2010PropOp46
 70
     0
102
RTVSPost2010Prop47
 90
       50
102
RTVSPost2010PropOp47
 70
     0
102
RTVSPost2010Prop48
 90
       50
102
RTVSPost2010PropOp48
 70
     0
102
RTVSPost2010Prop49
280
     0
102
RTVSPost2010PropOp49
 70
     1
102
RTVSPost2010Prop50
 90
       50
102
RTVSPost2010PropOp50
 70
     0
102
RTVSPost2010Prop51ColorIndex
 90
      256
102
RTVSPost2010Prop51ColorRGB
 90
-16777216
102
RTVSPost2010PropOp51
 70
     0
102
RTVSPost2010Prop52
140
1.0
102
RTVSPost2010PropOp52
 70
     0
102
RTVSPost2010Prop53
 90
        2
102
RTVSPost2010PropOp53
 70
     0
102
RTVSPost2010Prop54
  1
strokes_ogs.tif
102
RTVSPost2010PropOp54
 70
     0
102
RTVSPost2010Prop55
280
     0
102
RTVSPost2010PropOp55
 70
     1
102
RTVSPost2010Prop56
140
1.0
102
RTVSPost2010PropOp56
 70
     0
102
RTVSPost2010Prop57
140
1.0
102
RTVSPost2010PropOp57
 70
     0
102
RTVSPropertyOp0
 70
     0
102
RTVSPropertyOp1
 70
     0
102
RTVSPropertyOp2
 70
     0
102
RTVSPropertyOp3
 70
     0
102
RTVSPropertyOp4
 70
     0
102
RTVSPropertyOp5
 70
     0
102
RTVSPropertyOp6
 70
     0
102
RTVSPropertyOp7
 70
     0
102
RTVSPropertyOp8
 70
     0
102
RTVSPropertyOp9
 70
     0
102
RTVSPropertyOp10
 70
     0
102
RTVSPropertyOp11
 70
     0
102
RTVSPropertyOp12
 70
     0
102
RTVSPropertyOp13
 70
     0
102
RTVSPropertyOp14
 70
     2
102
RTVSPropertyOp15
 70
     0
102
RTVSPropertyOp16
 70
     0
102
RTVSPropertyOp17
 70
     0
102
RTVSPropertyOp18
 70
     0
102
RTVSPropertyOp19
 70
     0
102
RTVSPropertyOp20
 70
     0
102
RTVSPropertyOp21
 70
     0
102
RTVSPropertyOp22
 70
     0
102
RTVSPropertyOp23
 70
     0
102
RTVSPropertyOp24
 70
     0
102
RTVSPropertyOp25
 70
     0
102
RTVSPropertyOp26
 70
     0
102
RTVSPropertyOp27
 70
     0
102
RTVSPropertyOp28
 70
     1
102
RTVSPropertyOp29
 70
     1
102
RTVSPropertyOp30
 70
     1
102
RTVSPropertyOp31
 70
     1
102
RTVSPropertyOp32
 70
     1
102
RTVSPropertyOp33
 70
     1
102
RTVSPropertyOp34
 70
     1
102
RTVSPropertyOp35
 70
     1
102
RTVSPropertyOp36
 70
     1
102
RTVSPropertyOp37
 70
     0
102
RTVSPropertyOp38
 70
     0
102
RTVSPropertyOp39
 70
     0
102
RTVSPropertyOp40
 70
     0
102
RTVSPropertyOp41
 70
     0
102
RTVSPropertyOp42
 70
     0
102
RTVSPropertyOp43
 70
     0
102
RTVSPropertyOp44
 70
     0
102
RTVSPropertyOp45
 70
     1
102
RTVSPropertyOp46
 70
     0
102
RTVSPropertyOp47
 70
     0
102
RTVSPropertyOp48
 70
     0
102
RTVSPropertyOp49
 70
     1
102
RTVSPropertyOp50
 70
     0
102
RTVSPropertyOp51
 70
     0
102
RTVSPropertyOp52
 70
     0
102
RTVSPropertyOp53
 70
     0
102
RTVSPropertyOp54
 70
     0
102
RTVSPropertyOp55
 70
     1
102
RTVSPropertyOp56
 70
     0
102
RTVSPropertyOp57
 70
     0
102
RTVSPropertyOp58
 70
     0
102
RTVSPropertyOp59
 70
     0
102
RTVSPropertyOp60
 70
     0
102
RTVSPropertyOp61
 70
     0
102
RTVSPropertyOp62
 70
     0
  0
XRECORD
  5
40F
102
{ACAD_REACTORS
330
40E
102
}
330
40E
100
AcDbXrecord
280
     1
102
RTVSPost2010Prop28
280
     0
102
RTVSPost2010PropOp28
 70
     1
102
RTVSPost2010Prop29
280
     1
102
RTVSPost2010PropOp29
 70
     1
102
RTVSPost2010Prop30
280
     1
102
RTVSPost2010PropOp30
 70
     1
102
RTVSPost2010Prop31
280
     0
102
RTVSPost2010PropOp31
 70
     1
102
RTVSPost2010Prop32
280
     0
102
RTVSPost2010PropOp32
 70
     1
102
RTVSPost2010Prop33
280
     0
102
RTVSPost2010PropOp33
 70
     1
102
RTVSPost2010Prop34
280
     0
102
RTVSPost2010PropOp34
 70
     1
102
RTVSPost2010Prop35
280
     0
102
RTVSPost2010PropOp35
 70
     1
102
RTVSPost2010Prop36
280
     0
102
RTVSPost2010PropOp36
 70
     1
102
RTVSPost2010Prop37
 90
       50
102
RTVSPost2010PropOp37
 70
     1
102
RTVSPost2010Prop38
140
0.0
102
RTVSPost2010PropOp38
 70
     1
102
RTVSPost2010Prop39
140
1.0
102
RTVSPost2010PropOp39
 70
     1
102
RTVSPost2010Prop40
 90
        0
102
RTVSPost2010PropOp40
 70
     1
102
RTVSPost2010Prop41ColorIndex
 90
       18
102
RTVSPost2010Prop41ColorRGB
 90
        0
102
RTVSPost2010PropOp41
 70
     1
102
RTVSPost2010Prop42
 90
       50
102
RTVSPost2010PropOp42
 70
     1
102
RTVSPost2010Prop43
 90
        3
102
RTVSPost2010PropOp43
 70
     1
102
RTVSPost2010Prop44ColorIndex
 90
        5
102
RTVSPost2010Prop44ColorRGB
 90
      255
102
RTVSPost2010PropOp44
 70
     1
102
RTVSPost2010Prop45
280
     0
102
RTVSPost2010PropOp45
 70
     1
102
RTVSPost2010Prop46
 90
       50
102
RTVSPost2010PropOp46
 70
     1
102
RTVSPost2010Prop47
 90
       50
102
RTVSPost2010PropOp47
 70
     1
102
RTVSPost2010Prop48
 90
       50
102
RTVSPost2010PropOp48
 70
     1
102
RTVSPost2010Prop49
280
     0
102
RTVSPost2010PropOp49
 70
     1
102
RTVSPost2010Prop50
 90
       50
102
RTVSPost2010PropOp50
 70
     1
102
RTVSPost2010Prop51ColorIndex
 90
      256
102
RTVSPost2010Prop51ColorRGB
 90
-16777216
102
RTVSPost2010PropOp51
 70
     0
102
RTVSPost2010Prop52
140
1.0
102
RTVSPost2010PropOp52
 70
     0
102
RTVSPost2010Prop53
 90
        2
102
RTVSPost2010PropOp53
 70
     1
102
RTVSPost2010Prop54
  1
strokes_ogs.tif
102
RTVSPost2010PropOp54
 70
     1
102
RTVSPost2010Prop55
280
     0
102
RTVSPost2010PropOp55
 70
     1
102
RTVSPost2010Prop56
140
1.0
102
RTVSPost2010PropOp56
 70
     1
102
RTVSPost2010Prop57
140
1.0
102
RTVSPost2010PropOp57
 70
     1
102
RTVSPropertyOp0
 70
     1
102
RTVSPropertyOp1
 70
     1
102
RTVSPropertyOp2
 70
     1
102
RTVSPropertyOp3
 70
     1
102
RTVSPropertyOp4
 70
     1
102
RTVSPropertyOp5
 70
     1
102
RTVSPropertyOp6
 70
     1
102
RTVSPropertyOp7
 70
     1
102
RTVSPropertyOp8
 70
     1
102
RTVSPropertyOp9
 70
     1
102
RTVSPropertyOp10
 70
     1
102
RTVSPropertyOp11
 70
     1
102
RTVSPropertyOp12
 70
     1
102
RTVSPropertyOp13
 70
     1
102
RTVSPropertyOp14
 70
     1
102
RTVSPropertyOp15
 70
     1
102
RTVSPropertyOp16
 70
     1
102
RTVSPropertyOp17
 70
     1
102
RTVSPropertyOp18
 70
     1
102
RTVSPropertyOp19
 70
     1
102
RTVSPropertyOp20
 70
     1
102
RTVSPropertyOp21
 70
     1
102
RTVSPropertyOp22
 70
     1
102
RTVSPropertyOp23
 70
     1
102
RTVSPropertyOp24
 70
     1
102
RTVSPropertyOp25
 70
     1
102
RTVSPropertyOp26
 70
     1
102
RTVSPropertyOp27
 70
     1
102
RTVSPropertyOp28
 70
     1
102
RTVSPropertyOp29
 70
     1
102
RTVSPropertyOp30
 70
     1
102
RTVSPropertyOp31
 70
     1
102
RTVSPropertyOp32
 70
     1
102
RTVSPropertyOp33
 70
     1
102
RTVSPropertyOp34
 70
     1
102
RTVSPropertyOp35
 70
     1
102
RTVSPropertyOp36
 70
     1
102
RTVSPropertyOp37
 70
     1
102
RTVSPropertyOp38
 70
     1
102
RTVSPropertyOp39
 70
     1
102
RTVSPropertyOp40
 70
     1
102
RTVSPropertyOp41
 70
     1
102
RTVSPropertyOp42
 70
     1
102
RTVSPropertyOp43
 70
     1
102
RTVSPropertyOp44
 70
     1
102
RTVSPropertyOp45
 70
     1
102
RTVSPropertyOp46
 70
     1
102
RTVSPropertyOp47
 70
     1
102
RTVSPropertyOp48
 70
     1
102
RTVSPropertyOp49
 70
     1
102
RTVSPropertyOp50
 70
     1
102
RTVSPropertyOp51
 70
     0
102
RTVSPropertyOp52
 70
     0
102
RTVSPropertyOp53
 70
     1
102
RTVSPropertyOp54
 70
     1
102
RTVSPropertyOp55
 70
     1
102
RTVSPropertyOp56
 70
     1
102
RTVSPropertyOp57
 70
     1
102
RTVSPropertyOp58
 70
     1
102
RTVSPropertyOp59
 70
     1
102
RTVSPropertyOp60
 70
     1
102
RTVSPropertyOp61
 70
     1
102
RTVSPropertyOp62
 70
     1
  0
XRECORD
  5
421
102
{ACAD_REACTORS
330
420
102
}
330
420
100
AcDbXrecord
280
     1
102
RTVSPost2010Prop28
280
     0
102
RTVSPost2010PropOp28
 70
     1
102
RTVSPost2010Prop29
280
     1
102
RTVSPost2010PropOp29
 70
     1
102
RTVSPost2010Prop30
280
     1
102
RTVSPost2010PropOp30
 70
     1
102
RTVSPost2010Prop31
280
     0
102
RTVSPost2010PropOp31
 70
     1
102
RTVSPost2010Prop32
280
     0
102
RTVSPost2010PropOp32
 70
     1
102
RTVSPost2010Prop33
280
     0
102
RTVSPost2010PropOp33
 70
     1
102
RTVSPost2010Prop34
280
     0
102
RTVSPost2010PropOp34
 70
     1
102
RTVSPost2010Prop35
280
     0
102
RTVSPost2010PropOp35
 70
     1
102
RTVSPost2010Prop36
280
     0
102
RTVSPost2010PropOp36
 70
     1
102
RTVSPost2010Prop37
 90
       50
102
RTVSPost2010PropOp37
 70
     0
102
RTVSPost2010Prop38
140
0.0
102
RTVSPost2010PropOp38
 70
     0
102
RTVSPost2010Prop39
140
1.0
102
RTVSPost2010PropOp39
 70
     0
102
RTVSPost2010Prop40
 90
        0
102
RTVSPost2010PropOp40
 70
     0
102
RTVSPost2010Prop41ColorIndex
 90
       18
102
RTVSPost2010Prop41ColorRGB
 90
        0
102
RTVSPost2010PropOp41
 70
     0
102
RTVSPost2010Prop42
 90
       50
102
RTVSPost2010PropOp42
 70
     0
102
RTVSPost2010Prop43
 90
        3
102
RTVSPost2010PropOp43
 70
     0
102
RTVSPost2010Prop44ColorIndex
 90
        5
102
RTVSPost2010Prop44ColorRGB
 90
      255
102
RTVSPost2010PropOp44
 70
     0
102
RTVSPost2010Prop45
280
     0
102
RTVSPost2010PropOp45
 70
     1
102
RTVSPost2010Prop46
 90
       50
102
RTVSPost2010PropOp46
 70
     0
102
RTVSPost2010Prop47
 90
       50
102
RTVSPost2010PropOp47
 70
     0
102
RTVSPost2010Prop48
 90
       50
102
RTVSPost2010PropOp48
 70
     0
102
RTVSPost2010Prop49
280
     0
102
RTVSPost2010PropOp49
 70
     1
102
RTVSPost2010Prop50
 90
       50
102
RTVSPost2010PropOp50
 70
     0
102
RTVSPost2010Prop51ColorIndex
 90
      256
102
RTVSPost2010Prop51ColorRGB
 90
-16777216
102
RTVSPost2010PropOp51
 70
     0
102
RTVSPost2010Prop52
140
1.0
102
RTVSPost2010PropOp52
 70
     0
102
RTVSPost2010Prop53
 90
        2
102
RTVSPost2010PropOp53
 70
     0
102
RTVSPost2010Prop54
  1
strokes_ogs.tif
102
RTVSPost2010PropOp54
 70
     0
102
RTVSPost2010Prop55
280
     0
102
RTVSPost2010PropOp55
 70
     1
102
RTVSPost2010Prop56
140
1.0
102
RTVSPost2010PropOp56
 70
     0
102
RTVSPost2010Prop57
140
1.0
102
RTVSPost2010PropOp57
 70
     0
102
RTVSPropertyOp0
 70
     0
102
RTVSPropertyOp1
 70
     0
102
RTVSPropertyOp2
 70
     0
102
RTVSPropertyOp3
 70
     0
102
RTVSPropertyOp4
 70
     0
102
RTVSPropertyOp5
 70
     0
102
RTVSPropertyOp6
 70
     0
102
RTVSPropertyOp7
 70
     0
102
RTVSPropertyOp8
 70
     0
102
RTVSPropertyOp9
 70
     0
102
RTVSPropertyOp10
 70
     0
102
RTVSPropertyOp11
 70
     0
102
RTVSPropertyOp12
 70
     0
102
RTVSPropertyOp13
 70
     0
102
RTVSPropertyOp14
 70
     2
102
RTVSPropertyOp15
 70
     0
102
RTVSPropertyOp16
 70
     0
102
RTVSPropertyOp17
 70
     0
102
RTVSPropertyOp18
 70
     0
102
RTVSPropertyOp19
 70
     0
102
RTVSPropertyOp20
 70
     0
102
RTVSPropertyOp21
 70
     0
102
RTVSPropertyOp22
 70
     0
102
RTVSPropertyOp23
 70
     0
102
RTVSPropertyOp24
 70
     0
102
RTVSPropertyOp25
 70
     0
102
RTVSPropertyOp26
 70
     0
102
RTVSPropertyOp27
 70
     0
102
RTVSPropertyOp28
 70
     1
102
RTVSPropertyOp29
 70
     1
102
RTVSPropertyOp30
 70
     1
102
RTVSPropertyOp31
 70
     1
102
RTVSPropertyOp32
 70
     1
102
RTVSPropertyOp33
 70
     1
102
RTVSPropertyOp34
 70
     1
102
RTVSPropertyOp35
 70
     1
102
RTVSPropertyOp36
 70
     1
102
RTVSPropertyOp37
 70
     0
102
RTVSPropertyOp38
 70
     0
102
RTVSPropertyOp39
 70
     0
102
RTVSPropertyOp40
 70
     0
102
RTVSPropertyOp41
 70
     0
102
RTVSPropertyOp42
 70
     0
102
RTVSPropertyOp43
 70
     0
102
RTVSPropertyOp44
 70
     0
102
RTVSPropertyOp45
 70
     1
102
RTVSPropertyOp46
 70
     0
102
RTVSPropertyOp47
 70
     0
102
RTVSPropertyOp48
 70
     0
102
RTVSPropertyOp49
 70
     1
102
RTVSPropertyOp50
 70
     0
102
RTVSPropertyOp51
 70
     0
102
RTVSPropertyOp52
 70
     0
102
RTVSPropertyOp53
 70
     0
102
RTVSPropertyOp54
 70
     0
102
RTVSPropertyOp55
 70
     1
102
RTVSPropertyOp56
 70
     0
102
RTVSPropertyOp57
 70
     0
102
RTVSPropertyOp58
 70
     0
102
RTVSPropertyOp59
 70
     0
102
RTVSPropertyOp60
 70
     0
102
RTVSPropertyOp61
 70
     0
102
RTVSPropertyOp62
 70
     0
  0
XRECORD
  5
407
102
{ACAD_REACTORS
330
406
102
}
330
406
100
AcDbXrecord
280
     1
102
RTVSPost2010Prop28
280
     0
102
RTVSPost2010PropOp28
 70
     1
102
RTVSPost2010Prop29
280
     1
102
RTVSPost2010PropOp29
 70
     1
102
RTVSPost2010Prop30
280
     1
102
RTVSPost2010PropOp30
 70
     1
102
RTVSPost2010Prop31
280
     0
102
RTVSPost2010PropOp31
 70
     1
102
RTVSPost2010Prop32
280
     0
102
RTVSPost2010PropOp32
 70
     1
102
RTVSPost2010Prop33
280
     0
102
RTVSPost2010PropOp33
 70
     1
102
RTVSPost2010Prop34
280
     0
102
RTVSPost2010PropOp34
 70
     1
102
RTVSPost2010Prop35
280
     0
102
RTVSPost2010PropOp35
 70
     1
102
RTVSPost2010Prop36
280
     0
102
RTVSPost2010PropOp36
 70
     1
102
RTVSPost2010Prop37
 90
       50
102
RTVSPost2010PropOp37
 70
     1
102
RTVSPost2010Prop38
140
0.0
102
RTVSPost2010PropOp38
 70
     1
102
RTVSPost2010Prop39
140
1.0
102
RTVSPost2010PropOp39
 70
     1
102
RTVSPost2010Prop40
 90
        0
102
RTVSPost2010PropOp40
 70
     1
102
RTVSPost2010Prop41ColorIndex
 90
       18
102
RTVSPost2010Prop41ColorRGB
 90
        0
102
RTVSPost2010PropOp41
 70
     1
102
RTVSPost2010Prop42
 90
       50
102
RTVSPost2010PropOp42
 70
     1
102
RTVSPost2010Prop43
 90
        3
102
RTVSPost2010PropOp43
 70
     1
102
RTVSPost2010Prop44ColorIndex
 90
        5
102
RTVSPost2010Prop44ColorRGB
 90
      255
102
RTVSPost2010PropOp44
 70
     1
102
RTVSPost2010Prop45
280
     0
102
RTVSPost2010PropOp45
 70
     1
102
RTVSPost2010Prop46
 90
       50
102
RTVSPost2010PropOp46
 70
     1
102
RTVSPost2010Prop47
 90
       50
102
RTVSPost2010PropOp47
 70
     1
102
RTVSPost2010Prop48
 90
       50
102
RTVSPost2010PropOp48
 70
     1
102
RTVSPost2010Prop49
280
     0
102
RTVSPost2010PropOp49
 70
     1
102
RTVSPost2010Prop50
 90
       50
102
RTVSPost2010PropOp50
 70
     1
102
RTVSPost2010Prop51ColorIndex
 90
      256
102
RTVSPost2010Prop51ColorRGB
 90
-16777216
102
RTVSPost2010PropOp51
 70
     0
102
RTVSPost2010Prop52
140
1.0
102
RTVSPost2010PropOp52
 70
     0
102
RTVSPost2010Prop53
 90
        2
102
RTVSPost2010PropOp53
 70
     1
102
RTVSPost2010Prop54
  1
strokes_ogs.tif
102
RTVSPost2010PropOp54
 70
     1
102
RTVSPost2010Prop55
280
     0
102
RTVSPost2010PropOp55
 70
     1
102
RTVSPost2010Prop56
140
1.0
102
RTVSPost2010PropOp56
 70
     1
102
RTVSPost2010Prop57
140
1.0
102
RTVSPost2010PropOp57
 70
     1
102
RTVSPropertyOp0
 70
     1
102
RTVSPropertyOp1
 70
     1
102
RTVSPropertyOp2
 70
     1
102
RTVSPropertyOp3
 70
     1
102
RTVSPropertyOp4
 70
     1
102
RTVSPropertyOp5
 70
     1
102
RTVSPropertyOp6
 70
     1
102
RTVSPropertyOp7
 70
     1
102
RTVSPropertyOp8
 70
     1
102
RTVSPropertyOp9
 70
     1
102
RTVSPropertyOp10
 70
     1
102
RTVSPropertyOp11
 70
     1
102
RTVSPropertyOp12
 70
     1
102
RTVSPropertyOp13
 70
     1
102
RTVSPropertyOp14
 70
     1
102
RTVSPropertyOp15
 70
     1
102
RTVSPropertyOp16
 70
     1
102
RTVSPropertyOp17
 70
     1
102
RTVSPropertyOp18
 70
     1
102
RTVSPropertyOp19
 70
     1
102
RTVSPropertyOp20
 70
     1
102
RTVSPropertyOp21
 70
     1
102
RTVSPropertyOp22
 70
     1
102
RTVSPropertyOp23
 70
     1
102
RTVSPropertyOp24
 70
     1
102
RTVSPropertyOp25
 70
     1
102
RTVSPropertyOp26
 70
     1
102
RTVSPropertyOp27
 70
     1
102
RTVSPropertyOp28
 70
     1
102
RTVSPropertyOp29
 70
     1
102
RTVSPropertyOp30
 70
     1
102
RTVSPropertyOp31
 70
     1
102
RTVSPropertyOp32
 70
     1
102
RTVSPropertyOp33
 70
     1
102
RTVSPropertyOp34
 70
     1
102
RTVSPropertyOp35
 70
     1
102
RTVSPropertyOp36
 70
     1
102
RTVSPropertyOp37
 70
     1
102
RTVSPropertyOp38
 70
     1
102
RTVSPropertyOp39
 70
     1
102
RTVSPropertyOp40
 70
     1
102
RTVSPropertyOp41
 70
     1
102
RTVSPropertyOp42
 70
     1
102
RTVSPropertyOp43
 70
     1
102
RTVSPropertyOp44
 70
     1
102
RTVSPropertyOp45
 70
     1
102
RTVSPropertyOp46
 70
     1
102
RTVSPropertyOp47
 70
     1
102
RTVSPropertyOp48
 70
     1
102
RTVSPropertyOp49
 70
     1
102
RTVSPropertyOp50
 70
     1
102
RTVSPropertyOp51
 70
     0
102
RTVSPropertyOp52
 70
     0
102
RTVSPropertyOp53
 70
     1
102
RTVSPropertyOp54
 70
     1
102
RTVSPropertyOp55
 70
     1
102
RTVSPropertyOp56
 70
     1
102
RTVSPropertyOp57
 70
     1
102
RTVSPropertyOp58
 70
     1
102
RTVSPropertyOp59
 70
     1
102
RTVSPropertyOp60
 70
     1
102
RTVSPropertyOp61
 70
     1
102
RTVSPropertyOp62
 70
     1
  0
XRECORD
  5
41D
102
{ACAD_REACTORS
330
41C
102
}
330
41C
100
AcDbXrecord
280
     1
102
RTVSPost2010Prop28
280
     0
102
RTVSPost2010PropOp28
 70
     1
102
RTVSPost2010Prop29
280
     1
102
RTVSPost2010PropOp29
 70
     1
102
RTVSPost2010Prop30
280
     1
102
RTVSPost2010PropOp30
 70
     1
102
RTVSPost2010Prop31
280
     0
102
RTVSPost2010PropOp31
 70
     1
102
RTVSPost2010Prop32
280
     0
102
RTVSPost2010PropOp32
 70
     1
102
RTVSPost2010Prop33
280
     0
102
RTVSPost2010PropOp33
 70
     1
102
RTVSPost2010Prop34
280
     0
102
RTVSPost2010PropOp34
 70
     1
102
RTVSPost2010Prop35
280
     0
102
RTVSPost2010PropOp35
 70
     1
102
RTVSPost2010Prop36
280
     0
102
RTVSPost2010PropOp36
 70
     1
102
RTVSPost2010Prop37
 90
       50
102
RTVSPost2010PropOp37
 70
     1
102
RTVSPost2010Prop38
140
0.0
102
RTVSPost2010PropOp38
 70
     1
102
RTVSPost2010Prop39
140
1.0
102
RTVSPost2010PropOp39
 70
     1
102
RTVSPost2010Prop40
 90
        0
102
RTVSPost2010PropOp40
 70
     1
102
RTVSPost2010Prop41ColorIndex
 90
       18
102
RTVSPost2010Prop41ColorRGB
 90
        0
102
RTVSPost2010PropOp41
 70
     1
102
RTVSPost2010Prop42
 90
       50
102
RTVSPost2010PropOp42
 70
     1
102
RTVSPost2010Prop43
 90
        3
102
RTVSPost2010PropOp43
 70
     1
102
RTVSPost2010Prop44ColorIndex
 90
        5
102
RTVSPost2010Prop44ColorRGB
 90
      255
102
RTVSPost2010PropOp44
 70
     1
102
RTVSPost2010Prop45
280
     0
102
RTVSPost2010PropOp45
 70
     1
102
RTVSPost2010Prop46
 90
       50
102
RTVSPost2010PropOp46
 70
     1
102
RTVSPost2010Prop47
 90
       50
102
RTVSPost2010PropOp47
 70
     1
102
RTVSPost2010Prop48
 90
       50
102
RTVSPost2010PropOp48
 70
     1
102
RTVSPost2010Prop49
280
     0
102
RTVSPost2010PropOp49
 70
     1
102
RTVSPost2010Prop50
 90
       50
102
RTVSPost2010PropOp50
 70
     1
102
RTVSPost2010Prop51ColorIndex
 90
      256
102
RTVSPost2010Prop51ColorRGB
 90
-16777216
102
RTVSPost2010PropOp51
 70
     0
102
RTVSPost2010Prop52
140
1.0
102
RTVSPost2010PropOp52
 70
     0
102
RTVSPost2010Prop53
 90
        2
102
RTVSPost2010PropOp53
 70
     1
102
RTVSPost2010Prop54
  1
strokes_ogs.tif
102
RTVSPost2010PropOp54
 70
     1
102
RTVSPost2010Prop55
280
     0
102
RTVSPost2010PropOp55
 70
     1
102
RTVSPost2010Prop56
140
1.0
102
RTVSPost2010PropOp56
 70
     1
102
RTVSPost2010Prop57
140
1.0
102
RTVSPost2010PropOp57
 70
     1
102
RTVSPropertyOp0
 70
     1
102
RTVSPropertyOp1
 70
     1
102
RTVSPropertyOp2
 70
     1
102
RTVSPropertyOp3
 70
     1
102
RTVSPropertyOp4
 70
     1
102
RTVSPropertyOp5
 70
     1
102
RTVSPropertyOp6
 70
     1
102
RTVSPropertyOp7
 70
     1
102
RTVSPropertyOp8
 70
     1
102
RTVSPropertyOp9
 70
     1
102
RTVSPropertyOp10
 70
     1
102
RTVSPropertyOp11
 70
     1
102
RTVSPropertyOp12
 70
     1
102
RTVSPropertyOp13
 70
     1
102
RTVSPropertyOp14
 70
     1
102
RTVSPropertyOp15
 70
     1
102
RTVSPropertyOp16
 70
     1
102
RTVSPropertyOp17
 70
     1
102
RTVSPropertyOp18
 70
     1
102
RTVSPropertyOp19
 70
     1
102
RTVSPropertyOp20
 70
     1
102
RTVSPropertyOp21
 70
     1
102
RTVSPropertyOp22
 70
     1
102
RTVSPropertyOp23
 70
     1
102
RTVSPropertyOp24
 70
     1
102
RTVSPropertyOp25
 70
     1
102
RTVSPropertyOp26
 70
     1
102
RTVSPropertyOp27
 70
     1
102
RTVSPropertyOp28
 70
     1
102
RTVSPropertyOp29
 70
     1
102
RTVSPropertyOp30
 70
     1
102
RTVSPropertyOp31
 70
     1
102
RTVSPropertyOp32
 70
     1
102
RTVSPropertyOp33
 70
     1
102
RTVSPropertyOp34
 70
     1
102
RTVSPropertyOp35
 70
     1
102
RTVSPropertyOp36
 70
     1
102
RTVSPropertyOp37
 70
     1
102
RTVSPropertyOp38
 70
     1
102
RTVSPropertyOp39
 70
     1
102
RTVSPropertyOp40
 70
     1
102
RTVSPropertyOp41
 70
     1
102
RTVSPropertyOp42
 70
     1
102
RTVSPropertyOp43
 70
     1
102
RTVSPropertyOp44
 70
     1
102
RTVSPropertyOp45
 70
     1
102
RTVSPropertyOp46
 70
     1
102
RTVSPropertyOp47
 70
     1
102
RTVSPropertyOp48
 70
     1
102
RTVSPropertyOp49
 70
     1
102
RTVSPropertyOp50
 70
     1
102
RTVSPropertyOp51
 70
     0
102
RTVSPropertyOp52
 70
     0
102
RTVSPropertyOp53
 70
     1
102
RTVSPropertyOp54
 70
     1
102
RTVSPropertyOp55
 70
     1
102
RTVSPropertyOp56
 70
     1
102
RTVSPropertyOp57
 70
     1
102
RTVSPropertyOp58
 70
     1
102
RTVSPropertyOp59
 70
     1
102
RTVSPropertyOp60
 70
     1
102
RTVSPropertyOp61
 70
     1
102
RTVSPropertyOp62
 70
     1
  0
XRECORD
  5
41B
102
{ACAD_REACTORS
330
41A
102
}
330
41A
100
AcDbXrecord
280
     1
102
RTVSPost2010Prop28
280
     0
102
RTVSPost2010PropOp28
 70
     1
102
RTVSPost2010Prop29
280
     1
102
RTVSPost2010PropOp29
 70
     1
102
RTVSPost2010Prop30
280
     1
102
RTVSPost2010PropOp30
 70
     1
102
RTVSPost2010Prop31
280
     0
102
RTVSPost2010PropOp31
 70
     1
102
RTVSPost2010Prop32
280
     0
102
RTVSPost2010PropOp32
 70
     1
102
RTVSPost2010Prop33
280
     0
102
RTVSPost2010PropOp33
 70
     1
102
RTVSPost2010Prop34
280
     0
102
RTVSPost2010PropOp34
 70
     1
102
RTVSPost2010Prop35
280
     0
102
RTVSPost2010PropOp35
 70
     1
102
RTVSPost2010Prop36
280
     0
102
RTVSPost2010PropOp36
 70
     1
102
RTVSPost2010Prop37
 90
       50
102
RTVSPost2010PropOp37
 70
     1
102
RTVSPost2010Prop38
140
0.0
102
RTVSPost2010PropOp38
 70
     1
102
RTVSPost2010Prop39
140
1.0
102
RTVSPost2010PropOp39
 70
     1
102
RTVSPost2010Prop40
 90
        0
102
RTVSPost2010PropOp40
 70
     1
102
RTVSPost2010Prop41ColorIndex
 90
       18
102
RTVSPost2010Prop41ColorRGB
 90
        0
102
RTVSPost2010PropOp41
 70
     1
102
RTVSPost2010Prop42
 90
       50
102
RTVSPost2010PropOp42
 70
     1
102
RTVSPost2010Prop43
 90
        3
102
RTVSPost2010PropOp43
 70
     1
102
RTVSPost2010Prop44ColorIndex
 90
        5
102
RTVSPost2010Prop44ColorRGB
 90
      255
102
RTVSPost2010PropOp44
 70
     1
102
RTVSPost2010Prop45
280
     0
102
RTVSPost2010PropOp45
 70
     1
102
RTVSPost2010Prop46
 90
       50
102
RTVSPost2010PropOp46
 70
     1
102
RTVSPost2010Prop47
 90
       50
102
RTVSPost2010PropOp47
 70
     1
102
RTVSPost2010Prop48
 90
       50
102
RTVSPost2010PropOp48
 70
     1
102
RTVSPost2010Prop49
280
     0
102
RTVSPost2010PropOp49
 70
     1
102
RTVSPost2010Prop50
 90
       50
102
RTVSPost2010PropOp50
 70
     1
102
RTVSPost2010Prop51ColorIndex
 90
      256
102
RTVSPost2010Prop51ColorRGB
 90
-16777216
102
RTVSPost2010PropOp51
 70
     0
102
RTVSPost2010Prop52
140
1.0
102
RTVSPost2010PropOp52
 70
     0
102
RTVSPost2010Prop53
 90
        2
102
RTVSPost2010PropOp53
 70
     1
102
RTVSPost2010Prop54
  1
strokes_ogs.tif
102
RTVSPost2010PropOp54
 70
     1
102
RTVSPost2010Prop55
280
     0
102
RTVSPost2010PropOp55
 70
     1
102
RTVSPost2010Prop56
140
1.0
102
RTVSPost2010PropOp56
 70
     1
102
RTVSPost2010Prop57
140
1.0
102
RTVSPost2010PropOp57
 70
     1
102
RTVSPropertyOp0
 70
     1
102
RTVSPropertyOp1
 70
     1
102
RTVSPropertyOp2
 70
     1
102
RTVSPropertyOp3
 70
     1
102
RTVSPropertyOp4
 70
     1
102
RTVSPropertyOp5
 70
     1
102
RTVSPropertyOp6
 70
     1
102
RTVSPropertyOp7
 70
     1
102
RTVSPropertyOp8
 70
     1
102
RTVSPropertyOp9
 70
     1
102
RTVSPropertyOp10
 70
     1
102
RTVSPropertyOp11
 70
     1
102
RTVSPropertyOp12
 70
     1
102
RTVSPropertyOp13
 70
     1
102
RTVSPropertyOp14
 70
     1
102
RTVSPropertyOp15
 70
     1
102
RTVSPropertyOp16
 70
     1
102
RTVSPropertyOp17
 70
     1
102
RTVSPropertyOp18
 70
     1
102
RTVSPropertyOp19
 70
     1
102
RTVSPropertyOp20
 70
     1
102
RTVSPropertyOp21
 70
     1
102
RTVSPropertyOp22
 70
     1
102
RTVSPropertyOp23
 70
     1
102
RTVSPropertyOp24
 70
     1
102
RTVSPropertyOp25
 70
     1
102
RTVSPropertyOp26
 70
     1
102
RTVSPropertyOp27
 70
     1
102
RTVSPropertyOp28
 70
     1
102
RTVSPropertyOp29
 70
     1
102
RTVSPropertyOp30
 70
     1
102
RTVSPropertyOp31
 70
     1
102
RTVSPropertyOp32
 70
     1
102
RTVSPropertyOp33
 70
     1
102
RTVSPropertyOp34
 70
     1
102
RTVSPropertyOp35
 70
     1
102
RTVSPropertyOp36
 70
     1
102
RTVSPropertyOp37
 70
     1
102
RTVSPropertyOp38
 70
     1
102
RTVSPropertyOp39
 70
     1
102
RTVSPropertyOp40
 70
     1
102
RTVSPropertyOp41
 70
     1
102
RTVSPropertyOp42
 70
     1
102
RTVSPropertyOp43
 70
     1
102
RTVSPropertyOp44
 70
     1
102
RTVSPropertyOp45
 70
     1
102
RTVSPropertyOp46
 70
     1
102
RTVSPropertyOp47
 70
     1
102
RTVSPropertyOp48
 70
     1
102
RTVSPropertyOp49
 70
     1
102
RTVSPropertyOp50
 70
     1
102
RTVSPropertyOp51
 70
     0
102
RTVSPropertyOp52
 70
     0
102
RTVSPropertyOp53
 70
     1
102
RTVSPropertyOp54
 70
     1
102
RTVSPropertyOp55
 70
     1
102
RTVSPropertyOp56
 70
     1
102
RTVSPropertyOp57
 70
     1
102
RTVSPropertyOp58
 70
     1
102
RTVSPropertyOp59
 70
     1
102
RTVSPropertyOp60
 70
     1
102
RTVSPropertyOp61
 70
     1
102
RTVSPropertyOp62
 70
     1
  0
XRECORD
  5
415
102
{ACAD_REACTORS
330
414
102
}
330
414
100
AcDbXrecord
280
     1
102
RTVSPost2010Prop28
280
     0
102
RTVSPost2010PropOp28
 70
     1
102
RTVSPost2010Prop29
280
     1
102
RTVSPost2010PropOp29
 70
     1
102
RTVSPost2010Prop30
280
     1
102
RTVSPost2010PropOp30
 70
     1
102
RTVSPost2010Prop31
280
     0
102
RTVSPost2010PropOp31
 70
     1
102
RTVSPost2010Prop32
280
     0
102
RTVSPost2010PropOp32
 70
     1
102
RTVSPost2010Prop33
280
     0
102
RTVSPost2010PropOp33
 70
     1
102
RTVSPost2010Prop34
280
     0
102
RTVSPost2010PropOp34
 70
     1
102
RTVSPost2010Prop35
280
     0
102
RTVSPost2010PropOp35
 70
     1
102
RTVSPost2010Prop36
280
     0
102
RTVSPost2010PropOp36
 70
     1
102
RTVSPost2010Prop37
 90
       50
102
RTVSPost2010PropOp37
 70
     1
102
RTVSPost2010Prop38
140
0.0
102
RTVSPost2010PropOp38
 70
     1
102
RTVSPost2010Prop39
140
1.0
102
RTVSPost2010PropOp39
 70
     1
102
RTVSPost2010Prop40
 90
        0
102
RTVSPost2010PropOp40
 70
     1
102
RTVSPost2010Prop41ColorIndex
 90
       18
102
RTVSPost2010Prop41ColorRGB
 90
        0
102
RTVSPost2010PropOp41
 70
     1
102
RTVSPost2010Prop42
 90
       50
102
RTVSPost2010PropOp42
 70
     1
102
RTVSPost2010Prop43
 90
        3
102
RTVSPost2010PropOp43
 70
     1
102
RTVSPost2010Prop44ColorIndex
 90
        5
102
RTVSPost2010Prop44ColorRGB
 90
      255
102
RTVSPost2010PropOp44
 70
     1
102
RTVSPost2010Prop45
280
     0
102
RTVSPost2010PropOp45
 70
     1
102
RTVSPost2010Prop46
 90
       50
102
RTVSPost2010PropOp46
 70
     1
102
RTVSPost2010Prop47
 90
       50
102
RTVSPost2010PropOp47
 70
     1
102
RTVSPost2010Prop48
 90
       50
102
RTVSPost2010PropOp48
 70
     1
102
RTVSPost2010Prop49
280
     0
102
RTVSPost2010PropOp49
 70
     1
102
RTVSPost2010Prop50
 90
       50
102
RTVSPost2010PropOp50
 70
     1
102
RTVSPost2010Prop51ColorIndex
 90
      256
102
RTVSPost2010Prop51ColorRGB
 90
-16777216
102
RTVSPost2010PropOp51
 70
     0
102
RTVSPost2010Prop52
140
1.0
102
RTVSPost2010PropOp52
 70
     0
102
RTVSPost2010Prop53
 90
        2
102
RTVSPost2010PropOp53
 70
     1
102
RTVSPost2010Prop54
  1
strokes_ogs.tif
102
RTVSPost2010PropOp54
 70
     1
102
RTVSPost2010Prop55
280
     0
102
RTVSPost2010PropOp55
 70
     1
102
RTVSPost2010Prop56
140
1.0
102
RTVSPost2010PropOp56
 70
     1
102
RTVSPost2010Prop57
140
1.0
102
RTVSPost2010PropOp57
 70
     1
102
RTVSPropertyOp0
 70
     1
102
RTVSPropertyOp1
 70
     1
102
RTVSPropertyOp2
 70
     1
102
RTVSPropertyOp3
 70
     1
102
RTVSPropertyOp4
 70
     1
102
RTVSPropertyOp5
 70
     1
102
RTVSPropertyOp6
 70
     1
102
RTVSPropertyOp7
 70
     1
102
RTVSPropertyOp8
 70
     1
102
RTVSPropertyOp9
 70
     1
102
RTVSPropertyOp10
 70
     1
102
RTVSPropertyOp11
 70
     1
102
RTVSPropertyOp12
 70
     1
102
RTVSPropertyOp13
 70
     1
102
RTVSPropertyOp14
 70
     1
102
RTVSPropertyOp15
 70
     1
102
RTVSPropertyOp16
 70
     1
102
RTVSPropertyOp17
 70
     1
102
RTVSPropertyOp18
 70
     1
102
RTVSPropertyOp19
 70
     1
102
RTVSPropertyOp20
 70
     1
102
RTVSPropertyOp21
 70
     1
102
RTVSPropertyOp22
 70
     1
102
RTVSPropertyOp23
 70
     1
102
RTVSPropertyOp24
 70
     1
102
RTVSPropertyOp25
 70
     1
102
RTVSPropertyOp26
 70
     1
102
RTVSPropertyOp27
 70
     1
102
RTVSPropertyOp28
 70
     1
102
RTVSPropertyOp29
 70
     1
102
RTVSPropertyOp30
 70
     1
102
RTVSPropertyOp31
 70
     1
102
RTVSPropertyOp32
 70
     1
102
RTVSPropertyOp33
 70
     1
102
RTVSPropertyOp34
 70
     1
102
RTVSPropertyOp35
 70
     1
102
RTVSPropertyOp36
 70
     1
102
RTVSPropertyOp37
 70
     1
102
RTVSPropertyOp38
 70
     1
102
RTVSPropertyOp39
 70
     1
102
RTVSPropertyOp40
 70
     1
102
RTVSPropertyOp41
 70
     1
102
RTVSPropertyOp42
 70
     1
102
RTVSPropertyOp43
 70
     1
102
RTVSPropertyOp44
 70
     1
102
RTVSPropertyOp45
 70
     1
102
RTVSPropertyOp46
 70
     1
102
RTVSPropertyOp47
 70
     1
102
RTVSPropertyOp48
 70
     1
102
RTVSPropertyOp49
 70
     1
102
RTVSPropertyOp50
 70
     1
102
RTVSPropertyOp51
 70
     0
102
RTVSPropertyOp52
 70
     0
102
RTVSPropertyOp53
 70
     1
102
RTVSPropertyOp54
 70
     1
102
RTVSPropertyOp55
 70
     1
102
RTVSPropertyOp56
 70
     1
102
RTVSPropertyOp57
 70
     1
102
RTVSPropertyOp58
 70
     1
102
RTVSPropertyOp59
 70
     1
102
RTVSPropertyOp60
 70
     1
102
RTVSPropertyOp61
 70
     1
102
RTVSPropertyOp62
 70
     1
  0
XRECORD
  5
417
102
{ACAD_REACTORS
330
416
102
}
330
416
100
AcDbXrecord
280
     1
102
RTVSPost2010Prop28
280
     0
102
RTVSPost2010PropOp28
 70
     1
102
RTVSPost2010Prop29
280
     1
102
RTVSPost2010PropOp29
 70
     1
102
RTVSPost2010Prop30
280
     1
102
RTVSPost2010PropOp30
 70
     1
102
RTVSPost2010Prop31
280
     0
102
RTVSPost2010PropOp31
 70
     1
102
RTVSPost2010Prop32
280
     0
102
RTVSPost2010PropOp32
 70
     1
102
RTVSPost2010Prop33
280
     0
102
RTVSPost2010PropOp33
 70
     1
102
RTVSPost2010Prop34
280
     0
102
RTVSPost2010PropOp34
 70
     1
102
RTVSPost2010Prop35
280
     0
102
RTVSPost2010PropOp35
 70
     1
102
RTVSPost2010Prop36
280
     0
102
RTVSPost2010PropOp36
 70
     1
102
RTVSPost2010Prop37
 90
       50
102
RTVSPost2010PropOp37
 70
     1
102
RTVSPost2010Prop38
140
0.0
102
RTVSPost2010PropOp38
 70
     1
102
RTVSPost2010Prop39
140
1.0
102
RTVSPost2010PropOp39
 70
     1
102
RTVSPost2010Prop40
 90
        0
102
RTVSPost2010PropOp40
 70
     1
102
RTVSPost2010Prop41ColorIndex
 90
       18
102
RTVSPost2010Prop41ColorRGB
 90
        0
102
RTVSPost2010PropOp41
 70
     1
102
RTVSPost2010Prop42
 90
       50
102
RTVSPost2010PropOp42
 70
     1
102
RTVSPost2010Prop43
 90
        3
102
RTVSPost2010PropOp43
 70
     1
102
RTVSPost2010Prop44ColorIndex
 90
        5
102
RTVSPost2010Prop44ColorRGB
 90
      255
102
RTVSPost2010PropOp44
 70
     1
102
RTVSPost2010Prop45
280
     0
102
RTVSPost2010PropOp45
 70
     1
102
RTVSPost2010Prop46
 90
       50
102
RTVSPost2010PropOp46
 70
     1
102
RTVSPost2010Prop47
 90
       50
102
RTVSPost2010PropOp47
 70
     1
102
RTVSPost2010Prop48
 90
       50
102
RTVSPost2010PropOp48
 70
     1
102
RTVSPost2010Prop49
280
     0
102
RTVSPost2010PropOp49
 70
     1
102
RTVSPost2010Prop50
 90
       50
102
RTVSPost2010PropOp50
 70
     1
102
RTVSPost2010Prop51ColorIndex
 90
      256
102
RTVSPost2010Prop51ColorRGB
 90
-16777216
102
RTVSPost2010PropOp51
 70
     0
102
RTVSPost2010Prop52
140
1.0
102
RTVSPost2010PropOp52
 70
     0
102
RTVSPost2010Prop53
 90
        2
102
RTVSPost2010PropOp53
 70
     1
102
RTVSPost2010Prop54
  1
strokes_ogs.tif
102
RTVSPost2010PropOp54
 70
     1
102
RTVSPost2010Prop55
280
     0
102
RTVSPost2010PropOp55
 70
     1
102
RTVSPost2010Prop56
140
1.0
102
RTVSPost2010PropOp56
 70
     1
102
RTVSPost2010Prop57
140
1.0
102
RTVSPost2010PropOp57
 70
     1
102
RTVSPropertyOp0
 70
     1
102
RTVSPropertyOp1
 70
     1
102
RTVSPropertyOp2
 70
     1
102
RTVSPropertyOp3
 70
     1
102
RTVSPropertyOp4
 70
     1
102
RTVSPropertyOp5
 70
     1
102
RTVSPropertyOp6
 70
     1
102
RTVSPropertyOp7
 70
     1
102
RTVSPropertyOp8
 70
     1
102
RTVSPropertyOp9
 70
     1
102
RTVSPropertyOp10
 70
     1
102
RTVSPropertyOp11
 70
     1
102
RTVSPropertyOp12
 70
     1
102
RTVSPropertyOp13
 70
     1
102
RTVSPropertyOp14
 70
     1
102
RTVSPropertyOp15
 70
     1
102
RTVSPropertyOp16
 70
     1
102
RTVSPropertyOp17
 70
     1
102
RTVSPropertyOp18
 70
     1
102
RTVSPropertyOp19
 70
     1
102
RTVSPropertyOp20
 70
     1
102
RTVSPropertyOp21
 70
     1
102
RTVSPropertyOp22
 70
     1
102
RTVSPropertyOp23
 70
     1
102
RTVSPropertyOp24
 70
     1
102
RTVSPropertyOp25
 70
     1
102
RTVSPropertyOp26
 70
     1
102
RTVSPropertyOp27
 70
     1
102
RTVSPropertyOp28
 70
     1
102
RTVSPropertyOp29
 70
     1
102
RTVSPropertyOp30
 70
     1
102
RTVSPropertyOp31
 70
     1
102
RTVSPropertyOp32
 70
     1
102
RTVSPropertyOp33
 70
     1
102
RTVSPropertyOp34
 70
     1
102
RTVSPropertyOp35
 70
     1
102
RTVSPropertyOp36
 70
     1
102
RTVSPropertyOp37
 70
     1
102
RTVSPropertyOp38
 70
     1
102
RTVSPropertyOp39
 70
     1
102
RTVSPropertyOp40
 70
     1
102
RTVSPropertyOp41
 70
     1
102
RTVSPropertyOp42
 70
     1
102
RTVSPropertyOp43
 70
     1
102
RTVSPropertyOp44
 70
     1
102
RTVSPropertyOp45
 70
     1
102
RTVSPropertyOp46
 70
     1
102
RTVSPropertyOp47
 70
     1
102
RTVSPropertyOp48
 70
     1
102
RTVSPropertyOp49
 70
     1
102
RTVSPropertyOp50
 70
     1
102
RTVSPropertyOp51
 70
     0
102
RTVSPropertyOp52
 70
     0
102
RTVSPropertyOp53
 70
     1
102
RTVSPropertyOp54
 70
     1
102
RTVSPropertyOp55
 70
     1
102
RTVSPropertyOp56
 70
     1
102
RTVSPropertyOp57
 70
     1
102
RTVSPropertyOp58
 70
     1
102
RTVSPropertyOp59
 70
     1
102
RTVSPropertyOp60
 70
     1
102
RTVSPropertyOp61
 70
     1
102
RTVSPropertyOp62
 70
     1
  0
XRECORD
  5
40D
102
{ACAD_REACTORS
330
40C
102
}
330
40C
100
AcDbXrecord
280
     1
102
RTVSPost2010Prop28
280
     0
102
RTVSPost2010PropOp28
 70
     1
102
RTVSPost2010Prop29
280
     1
102
RTVSPost2010PropOp29
 70
     1
102
RTVSPost2010Prop30
280
     1
102
RTVSPost2010PropOp30
 70
     1
102
RTVSPost2010Prop31
280
     0
102
RTVSPost2010PropOp31
 70
     1
102
RTVSPost2010Prop32
280
     0
102
RTVSPost2010PropOp32
 70
     1
102
RTVSPost2010Prop33
280
     0
102
RTVSPost2010PropOp33
 70
     1
102
RTVSPost2010Prop34
280
     0
102
RTVSPost2010PropOp34
 70
     1
102
RTVSPost2010Prop35
280
     0
102
RTVSPost2010PropOp35
 70
     1
102
RTVSPost2010Prop36
280
     0
102
RTVSPost2010PropOp36
 70
     1
102
RTVSPost2010Prop37
 90
       50
102
RTVSPost2010PropOp37
 70
     1
102
RTVSPost2010Prop38
140
0.0
102
RTVSPost2010PropOp38
 70
     1
102
RTVSPost2010Prop39
140
1.0
102
RTVSPost2010PropOp39
 70
     1
102
RTVSPost2010Prop40
 90
        0
102
RTVSPost2010PropOp40
 70
     1
102
RTVSPost2010Prop41ColorIndex
 90
       18
102
RTVSPost2010Prop41ColorRGB
 90
        0
102
RTVSPost2010PropOp41
 70
     1
102
RTVSPost2010Prop42
 90
       50
102
RTVSPost2010PropOp42
 70
     1
102
RTVSPost2010Prop43
 90
        3
102
RTVSPost2010PropOp43
 70
     1
102
RTVSPost2010Prop44ColorIndex
 90
        5
102
RTVSPost2010Prop44ColorRGB
 90
      255
102
RTVSPost2010PropOp44
 70
     1
102
RTVSPost2010Prop45
280
     0
102
RTVSPost2010PropOp45
 70
     1
102
RTVSPost2010Prop46
 90
       50
102
RTVSPost2010PropOp46
 70
     1
102
RTVSPost2010Prop47
 90
       50
102
RTVSPost2010PropOp47
 70
     1
102
RTVSPost2010Prop48
 90
       50
102
RTVSPost2010PropOp48
 70
     1
102
RTVSPost2010Prop49
280
     0
102
RTVSPost2010PropOp49
 70
     1
102
RTVSPost2010Prop50
 90
       50
102
RTVSPost2010PropOp50
 70
     1
102
RTVSPost2010Prop51ColorIndex
 90
      256
102
RTVSPost2010Prop51ColorRGB
 90
-16777216
102
RTVSPost2010PropOp51
 70
     0
102
RTVSPost2010Prop52
140
1.0
102
RTVSPost2010PropOp52
 70
     0
102
RTVSPost2010Prop53
 90
        2
102
RTVSPost2010PropOp53
 70
     1
102
RTVSPost2010Prop54
  1
strokes_ogs.tif
102
RTVSPost2010PropOp54
 70
     1
102
RTVSPost2010Prop55
280
     0
102
RTVSPost2010PropOp55
 70
     1
102
RTVSPost2010Prop56
140
1.0
102
RTVSPost2010PropOp56
 70
     1
102
RTVSPost2010Prop57
140
1.0
102
RTVSPost2010PropOp57
 70
     1
102
RTVSPropertyOp0
 70
     1
102
RTVSPropertyOp1
 70
     1
102
RTVSPropertyOp2
 70
     1
102
RTVSPropertyOp3
 70
     1
102
RTVSPropertyOp4
 70
     1
102
RTVSPropertyOp5
 70
     1
102
RTVSPropertyOp6
 70
     1
102
RTVSPropertyOp7
 70
     1
102
RTVSPropertyOp8
 70
     1
102
RTVSPropertyOp9
 70
     1
102
RTVSPropertyOp10
 70
     1
102
RTVSPropertyOp11
 70
     1
102
RTVSPropertyOp12
 70
     1
102
RTVSPropertyOp13
 70
     1
102
RTVSPropertyOp14
 70
     1
102
RTVSPropertyOp15
 70
     1
102
RTVSPropertyOp16
 70
     1
102
RTVSPropertyOp17
 70
     1
102
RTVSPropertyOp18
 70
     1
102
RTVSPropertyOp19
 70
     1
102
RTVSPropertyOp20
 70
     1
102
RTVSPropertyOp21
 70
     1
102
RTVSPropertyOp22
 70
     1
102
RTVSPropertyOp23
 70
     1
102
RTVSPropertyOp24
 70
     1
102
RTVSPropertyOp25
 70
     1
102
RTVSPropertyOp26
 70
     1
102
RTVSPropertyOp27
 70
     1
102
RTVSPropertyOp28
 70
     1
102
RTVSPropertyOp29
 70
     1
102
RTVSPropertyOp30
 70
     1
102
RTVSPropertyOp31
 70
     1
102
RTVSPropertyOp32
 70
     1
102
RTVSPropertyOp33
 70
     1
102
RTVSPropertyOp34
 70
     1
102
RTVSPropertyOp35
 70
     1
102
RTVSPropertyOp36
 70
     1
102
RTVSPropertyOp37
 70
     1
102
RTVSPropertyOp38
 70
     1
102
RTVSPropertyOp39
 70
     1
102
RTVSPropertyOp40
 70
     1
102
RTVSPropertyOp41
 70
     1
102
RTVSPropertyOp42
 70
     1
102
RTVSPropertyOp43
 70
     1
102
RTVSPropertyOp44
 70
     1
102
RTVSPropertyOp45
 70
     1
102
RTVSPropertyOp46
 70
     1
102
RTVSPropertyOp47
 70
     1
102
RTVSPropertyOp48
 70
     1
102
RTVSPropertyOp49
 70
     1
102
RTVSPropertyOp50
 70
     1
102
RTVSPropertyOp51
 70
     0
102
RTVSPropertyOp52
 70
     0
102
RTVSPropertyOp53
 70
     1
102
RTVSPropertyOp54
 70
     1
102
RTVSPropertyOp55
 70
     1
102
RTVSPropertyOp56
 70
     1
102
RTVSPropertyOp57
 70
     1
102
RTVSPropertyOp58
 70
     1
102
RTVSPropertyOp59
 70
     1
102
RTVSPropertyOp60
 70
     1
102
RTVSPropertyOp61
 70
     1
102
RTVSPropertyOp62
 70
     1
  0
XRECORD
  5
401
102
{ACAD_REACTORS
330
400
102
}
330
400
100
AcDbXrecord
280
     1
102
RTVSPost2010Prop28
280
     0
102
RTVSPost2010PropOp28
 70
     1
102
RTVSPost2010Prop29
280
     1
102
RTVSPost2010PropOp29
 70
     1
102
RTVSPost2010Prop30
280
     1
102
RTVSPost2010PropOp30
 70
     1
102
RTVSPost2010Prop31
280
     0
102
RTVSPost2010PropOp31
 70
     1
102
RTVSPost2010Prop32
280
     0
102
RTVSPost2010PropOp32
 70
     1
102
RTVSPost2010Prop33
280
     0
102
RTVSPost2010PropOp33
 70
     1
102
RTVSPost2010Prop34
280
     0
102
RTVSPost2010PropOp34
 70
     1
102
RTVSPost2010Prop35
280
     0
102
RTVSPost2010PropOp35
 70
     1
102
RTVSPost2010Prop36
280
     0
102
RTVSPost2010PropOp36
 70
     1
102
RTVSPost2010Prop37
 90
       50
102
RTVSPost2010PropOp37
 70
     1
102
RTVSPost2010Prop38
140
0.0
102
RTVSPost2010PropOp38
 70
     1
102
RTVSPost2010Prop39
140
1.0
102
RTVSPost2010PropOp39
 70
     1
102
RTVSPost2010Prop40
 90
        0
102
RTVSPost2010PropOp40
 70
     1
102
RTVSPost2010Prop41ColorIndex
 90
       18
102
RTVSPost2010Prop41ColorRGB
 90
        0
102
RTVSPost2010PropOp41
 70
     1
102
RTVSPost2010Prop42
 90
       50
102
RTVSPost2010PropOp42
 70
     1
102
RTVSPost2010Prop43
 90
        3
102
RTVSPost2010PropOp43
 70
     1
102
RTVSPost2010Prop44ColorIndex
 90
        5
102
RTVSPost2010Prop44ColorRGB
 90
      255
102
RTVSPost2010PropOp44
 70
     1
102
RTVSPost2010Prop45
280
     0
102
RTVSPost2010PropOp45
 70
     1
102
RTVSPost2010Prop46
 90
       50
102
RTVSPost2010PropOp46
 70
     1
102
RTVSPost2010Prop47
 90
       50
102
RTVSPost2010PropOp47
 70
     1
102
RTVSPost2010Prop48
 90
       50
102
RTVSPost2010PropOp48
 70
     1
102
RTVSPost2010Prop49
280
     0
102
RTVSPost2010PropOp49
 70
     1
102
RTVSPost2010Prop50
 90
       50
102
RTVSPost2010PropOp50
 70
     1
102
RTVSPost2010Prop51ColorIndex
 90
      256
102
RTVSPost2010Prop51ColorRGB
 90
-16777216
102
RTVSPost2010PropOp51
 70
     0
102
RTVSPost2010Prop52
140
1.0
102
RTVSPost2010PropOp52
 70
     0
102
RTVSPost2010Prop53
 90
        2
102
RTVSPost2010PropOp53
 70
     1
102
RTVSPost2010Prop54
  1
strokes_ogs.tif
102
RTVSPost2010PropOp54
 70
     1
102
RTVSPost2010Prop55
280
     0
102
RTVSPost2010PropOp55
 70
     1
102
RTVSPost2010Prop56
140
1.0
102
RTVSPost2010PropOp56
 70
     1
102
RTVSPost2010Prop57
140
1.0
102
RTVSPost2010PropOp57
 70
     1
102
RTVSPropertyOp0
 70
     1
102
RTVSPropertyOp1
 70
     1
102
RTVSPropertyOp2
 70
     1
102
RTVSPropertyOp3
 70
     1
102
RTVSPropertyOp4
 70
     1
102
RTVSPropertyOp5
 70
     1
102
RTVSPropertyOp6
 70
     1
102
RTVSPropertyOp7
 70
     1
102
RTVSPropertyOp8
 70
     1
102
RTVSPropertyOp9
 70
     1
102
RTVSPropertyOp10
 70
     1
102
RTVSPropertyOp11
 70
     1
102
RTVSPropertyOp12
 70
     1
102
RTVSPropertyOp13
 70
     1
102
RTVSPropertyOp14
 70
     1
102
RTVSPropertyOp15
 70
     1
102
RTVSPropertyOp16
 70
     1
102
RTVSPropertyOp17
 70
     1
102
RTVSPropertyOp18
 70
     1
102
RTVSPropertyOp19
 70
     1
102
RTVSPropertyOp20
 70
     1
102
RTVSPropertyOp21
 70
     1
102
RTVSPropertyOp22
 70
     1
102
RTVSPropertyOp23
 70
     1
102
RTVSPropertyOp24
 70
     1
102
RTVSPropertyOp25
 70
     1
102
RTVSPropertyOp26
 70
     1
102
RTVSPropertyOp27
 70
     1
102
RTVSPropertyOp28
 70
     1
102
RTVSPropertyOp29
 70
     1
102
RTVSPropertyOp30
 70
     1
102
RTVSPropertyOp31
 70
     1
102
RTVSPropertyOp32
 70
     1
102
RTVSPropertyOp33
 70
     1
102
RTVSPropertyOp34
 70
     1
102
RTVSPropertyOp35
 70
     1
102
RTVSPropertyOp36
 70
     1
102
RTVSPropertyOp37
 70
     1
102
RTVSPropertyOp38
 70
     1
102
RTVSPropertyOp39
 70
     1
102
RTVSPropertyOp40
 70
     1
102
RTVSPropertyOp41
 70
     1
102
RTVSPropertyOp42
 70
     1
102
RTVSPropertyOp43
 70
     1
102
RTVSPropertyOp44
 70
     1
102
RTVSPropertyOp45
 70
     1
102
RTVSPropertyOp46
 70
     1
102
RTVSPropertyOp47
 70
     1
102
RTVSPropertyOp48
 70
     1
102
RTVSPropertyOp49
 70
     1
102
RTVSPropertyOp50
 70
     1
102
RTVSPropertyOp51
 70
     0
102
RTVSPropertyOp52
 70
     0
102
RTVSPropertyOp53
 70
     1
102
RTVSPropertyOp54
 70
     1
102
RTVSPropertyOp55
 70
     1
102
RTVSPropertyOp56
 70
     1
102
RTVSPropertyOp57
 70
     1
102
RTVSPropertyOp58
 70
     1
102
RTVSPropertyOp59
 70
     1
102
RTVSPropertyOp60
 70
     1
102
RTVSPropertyOp61
 70
     1
102
RTVSPropertyOp62
 70
     1
  0
XRECORD
  5
419
102
{ACAD_REACTORS
330
418
102
}
330
418
100
AcDbXrecord
280
     1
102
RTVSPost2010Prop28
280
     0
102
RTVSPost2010PropOp28
 70
     1
102
RTVSPost2010Prop29
280
     1
102
RTVSPost2010PropOp29
 70
     1
102
RTVSPost2010Prop30
280
     1
102
RTVSPost2010PropOp30
 70
     1
102
RTVSPost2010Prop31
280
     0
102
RTVSPost2010PropOp31
 70
     1
102
RTVSPost2010Prop32
280
     0
102
RTVSPost2010PropOp32
 70
     1
102
RTVSPost2010Prop33
280
     0
102
RTVSPost2010PropOp33
 70
     1
102
RTVSPost2010Prop34
280
     0
102
RTVSPost2010PropOp34
 70
     1
102
RTVSPost2010Prop35
280
     0
102
RTVSPost2010PropOp35
 70
     1
102
RTVSPost2010Prop36
280
     0
102
RTVSPost2010PropOp36
 70
     1
102
RTVSPost2010Prop37
 90
       50
102
RTVSPost2010PropOp37
 70
     1
102
RTVSPost2010Prop38
140
0.0
102
RTVSPost2010PropOp38
 70
     1
102
RTVSPost2010Prop39
140
1.0
102
RTVSPost2010PropOp39
 70
     1
102
RTVSPost2010Prop40
 90
        0
102
RTVSPost2010PropOp40
 70
     1
102
RTVSPost2010Prop41ColorIndex
 90
       18
102
RTVSPost2010Prop41ColorRGB
 90
        0
102
RTVSPost2010PropOp41
 70
     1
102
RTVSPost2010Prop42
 90
       50
102
RTVSPost2010PropOp42
 70
     1
102
RTVSPost2010Prop43
 90
        3
102
RTVSPost2010PropOp43
 70
     1
102
RTVSPost2010Prop44ColorIndex
 90
        5
102
RTVSPost2010Prop44ColorRGB
 90
      255
102
RTVSPost2010PropOp44
 70
     1
102
RTVSPost2010Prop45
280
     0
102
RTVSPost2010PropOp45
 70
     1
102
RTVSPost2010Prop46
 90
       50
102
RTVSPost2010PropOp46
 70
     1
102
RTVSPost2010Prop47
 90
       50
102
RTVSPost2010PropOp47
 70
     1
102
RTVSPost2010Prop48
 90
       50
102
RTVSPost2010PropOp48
 70
     1
102
RTVSPost2010Prop49
280
     0
102
RTVSPost2010PropOp49
 70
     1
102
RTVSPost2010Prop50
 90
       50
102
RTVSPost2010PropOp50
 70
     1
102
RTVSPost2010Prop51ColorIndex
 90
      256
102
RTVSPost2010Prop51ColorRGB
 90
-16777216
102
RTVSPost2010PropOp51
 70
     0
102
RTVSPost2010Prop52
140
1.0
102
RTVSPost2010PropOp52
 70
     0
102
RTVSPost2010Prop53
 90
        2
102
RTVSPost2010PropOp53
 70
     1
102
RTVSPost2010Prop54
  1
strokes_ogs.tif
102
RTVSPost2010PropOp54
 70
     1
102
RTVSPost2010Prop55
280
     0
102
RTVSPost2010PropOp55
 70
     1
102
RTVSPost2010Prop56
140
1.0
102
RTVSPost2010PropOp56
 70
     1
102
RTVSPost2010Prop57
140
1.0
102
RTVSPost2010PropOp57
 70
     1
102
RTVSPropertyOp0
 70
     1
102
RTVSPropertyOp1
 70
     1
102
RTVSPropertyOp2
 70
     1
102
RTVSPropertyOp3
 70
     1
102
RTVSPropertyOp4
 70
     1
102
RTVSPropertyOp5
 70
     1
102
RTVSPropertyOp6
 70
     1
102
RTVSPropertyOp7
 70
     1
102
RTVSPropertyOp8
 70
     1
102
RTVSPropertyOp9
 70
     1
102
RTVSPropertyOp10
 70
     1
102
RTVSPropertyOp11
 70
     1
102
RTVSPropertyOp12
 70
     1
102
RTVSPropertyOp13
 70
     1
102
RTVSPropertyOp14
 70
     1
102
RTVSPropertyOp15
 70
     1
102
RTVSPropertyOp16
 70
     1
102
RTVSPropertyOp17
 70
     1
102
RTVSPropertyOp18
 70
     1
102
RTVSPropertyOp19
 70
     1
102
RTVSPropertyOp20
 70
     1
102
RTVSPropertyOp21
 70
     1
102
RTVSPropertyOp22
 70
     1
102
RTVSPropertyOp23
 70
     1
102
RTVSPropertyOp24
 70
     1
102
RTVSPropertyOp25
 70
     1
102
RTVSPropertyOp26
 70
     1
102
RTVSPropertyOp27
 70
     1
102
RTVSPropertyOp28
 70
     1
102
RTVSPropertyOp29
 70
     1
102
RTVSPropertyOp30
 70
     1
102
RTVSPropertyOp31
 70
     1
102
RTVSPropertyOp32
 70
     1
102
RTVSPropertyOp33
 70
     1
102
RTVSPropertyOp34
 70
     1
102
RTVSPropertyOp35
 70
     1
102
RTVSPropertyOp36
 70
     1
102
RTVSPropertyOp37
 70
     1
102
RTVSPropertyOp38
 70
     1
102
RTVSPropertyOp39
 70
     1
102
RTVSPropertyOp40
 70
     1
102
RTVSPropertyOp41
 70
     1
102
RTVSPropertyOp42
 70
     1
102
RTVSPropertyOp43
 70
     1
102
RTVSPropertyOp44
 70
     1
102
RTVSPropertyOp45
 70
     1
102
RTVSPropertyOp46
 70
     1
102
RTVSPropertyOp47
 70
     1
102
RTVSPropertyOp48
 70
     1
102
RTVSPropertyOp49
 70
     1
102
RTVSPropertyOp50
 70
     1
102
RTVSPropertyOp51
 70
     0
102
RTVSPropertyOp52
 70
     0
102
RTVSPropertyOp53
 70
     1
102
RTVSPropertyOp54
 70
     1
102
RTVSPropertyOp55
 70
     1
102
RTVSPropertyOp56
 70
     1
102
RTVSPropertyOp57
 70
     1
102
RTVSPropertyOp58
 70
     1
102
RTVSPropertyOp59
 70
     1
102
RTVSPropertyOp60
 70
     1
102
RTVSPropertyOp61
 70
     1
102
RTVSPropertyOp62
 70
     1
  0
ENDSEC
  0
EOF
